Song name
# A B C D E F G H I J K L M N O P Q R S T U V W X Y Z

Hillsong - Take It All tab

Artist: Hillsong 
Song: Take It all (Intro)
Album: Hillsong - Mighty To Save 
Tuning: Standard 

Intro
Play after the bass riffs and build up (0:29)
              
                                     [bend fret 11 to fret 12 & return to 11]
                                                              V
|----------------------------9-11---------------------------------------|  
|-------14------12------11-------------14------12------11--11h12p11--7--|
|----11------11------11-------------11------11------11------------------| 
|--9-------9-------9-------9------9-------9-------9---------------------|
|-----------------------------------------------------------------------|
|-----------------------------------------------------------------------|

                                                           
|----------------------------9-11-------------------------------------------|  
|-------14------12------11-------------14------12------11--11h12p11--7--0~--|
|----11------11------11-------------11------11------11----------------------| 
|--9-------9-------9-------9------9-------9-------9-------------------------|
|---------------------------------------------------------------------------|
|---------------------------------------------------------------------------|

When you end with the open B, fade away like in the song. 
That's the best I can do with my ears. Enjoy! 
Tap to rate this tab
# A B C D E F G H I J K L M N O P Q R S T U V W X Y Z