Song name
# A B C D E F G H I J K L M N O P Q R S T U V W X Y Z

Hillsong - Tell The World tab

Tabbed by: Hero904 (Adan)
Love this song always play it at church hope you enjoy.
Have fun.
Chords used:
G     320033
Em    022033
C     032033
D     000232
Asus  002200

Intro:
e|-------------------------------------------------|
b|-------------------------------------------------|
g|-------------------------------------------------|
D|-222-000-----------------------------------------|
A|---------22-333-222------------------------------| About 4x
E|--------------------33---------------------------|
I know I left out the electric part that you hear with the bending but this is for young 
any band that wants to play this song and it not be to hard.

Verse:
|-------------------------------------------------|
|-------------------------------------------------|
|-9-----16-----9-----16-----14-----12-------------|
|-7-6x--14-3x--7-4x--14-2x--12-2x--10-2x----------|
|-7-----14-----7-----14-----12-----10-------------|  2x
|-------------------------------------------------|

Pre-Chorus: One guitar do intro again and other do this.
|-------------------------------------------------|
|-------------------------------------------------|
|-----12-12-9-9-----------------------------------|
|-9-9-----------9-9-10-10-10-9-9-9-9--------------| 3 or 4x
|-------------------------------------------------|
|-------------------------------------------------|

Chorus: (I play the Chords)
  G     D     Em     C
|-------------------------------------------------|
|-------------------------------------------------|
|-------9------------7----------------------------|
|-7-----9-6x--9--6x--7-6x-------------------------|
|-7-6x--7-----11-----5----------------------------|
|-5-----------------------------------------------|

Verse
Pre-Chorus
Chorus 2x

Then for bridge:
|-3------------3------------------------------------|
|-3------------3------------------------------------|
|-0--Let-------0--Let-------------------------------|
|-0--Ring------0--Ring------------------------------|
|-2------------2------------------------------------|
|-3------------3------------------------------------|

Then -Palm Mute- G then, Asus, then Em, the C.
Do that a couple times. That starts about half-way through the "Come on Come on" part 
the 4th time they sing it.
Tap to rate this tab
# A B C D E F G H I J K L M N O P Q R S T U V W X Y Z