Song name
# A B C D E F G H I J K L M N O P Q R S T U V W X Y Z

Hillsong - The First And The Last tab

The First And The Last
Hillsong
Faith + Hope + Love

Standard tuning

Guitar 1
|------8--------8--------11--------11--------8--------8--------6--------6-----|  x4
|----9---9----9---9----9----9----9----9----9---9----9---9----9---9----9---9---|
|--8--------8--------8---------8---------8--------8--------8--------8---------|
|-----------------------------------------------------------------------------|
|-----------------------------------------------------------------------------|
|-----------------------------------------------------------------------------|


|------11--------8--------11--------8--------6--------6--------6--------6-----|
|----9----9----9---9----9----9----9---9----9---9----9---9----9---9----9---9---|
|--8---------8--------8---------8--------8--------8--------8--------8---------|
|-----------------------------------------------------------------------------|
|-----------------------------------------------------------------------------|
|-----------------------------------------------------------------------------|


|------8--------8--------11--------11--------8--------8--------6--------6-----|  x2
|----9---9----9---9----9----9----9----9----9---9----9---9----9---9----9---9---|
|--8--------8--------8---------8---------8--------8--------8--------8---------|
|-----------------------------------------------------------------------------|
|-----------------------------------------------------------------------------|
|-----------------------------------------------------------------------------|


Guitar 1
|------11--------8--------11--------8--------6--------6--------6--------6-----|
|----9----9----9---9----9----9----9---9----9---9----9---9----9---9----9---9---|
|--8---------8--------8---------8--------8--------8--------8--------8---------|
|-----------------------------------------------------------------------------|
|-----------------------------------------------------------------------------|
|-----------------------------------------------------------------------------|
|									      |
|Guitar 2								      |
|-----------------------------------------------------------------------------|
|-----------------------------------------------------------------------------|
|--6-6-6-6-6-10-10-10-6--6-6-6-6--8-8-8---------------------------------------|
|--6-6-6-6-6-10-10-10-6--6-6-6-6--8-8-8--6--6-6-6-6-6-6-6-6-6-6-6-6-6-6-6-6---|
|--4-4-4-4-4-8--8--8--4--4-4-4-4--6-6-6--6--6-6-6-6-6-6-6-6-6-6-6-6-6-6-6-6---|
|----------------------------------------4--4-4-4-4-4-4-4-4-4-4-4-4-4-4-4-4---|

Chorus

Guitar 2
|---------------------------------------------------------------------|
|---------------------------------------------------------------------|
|-------------------8-8-8-8-8-8-8-8--6-6-6-6-6-6-6--------------------|
|--6-6-6-6-6-6-6-6--8-8-8-8-8-8-8-8--6-6-6-6-6-6-6--6-6-6-6--8-8-8-8--|
|--6-6-6-6-6-6-6-6--6-6-6-6-6-6-6-6--4-4-4-4-4-4-4--6-6-6-6--8-8-8-8--|
|--4-4-4-4-4-4-4-4----------------------------------4-4-4-4--6-6-6-6--|


|----------------------------------------------------------------------------------|
|----------------------------------------------------------------------------------|
|--10-10-10-10-10-10-10-10--8-8-8-8-8-8-8-8--6-6-6-6-6--10-10-10-6-6-6-6-6--8-8-8--|
|--10-10-10-10-10-10-10-10--8-8-8-8-8-8-8-8--6-6-6-6-6--10-10-10-6-6-6-6-6--8-8-8--|
|--8--8--8--8--8--8--8--8---6-6-6-6-6-6-6-6--4-4-4-4-4--8--8--8--4-4-4-4-4--6-6-6--|
|----------------------------------------------------------------------------------|


Guitar 1
|------8--------8--------11--------11--------8--------8--------6--------6-----|  x3
|----9---9----9---9----9----9----9----9----9---9----9---9----9---9----9---9---|
|--8--------8--------8---------8---------8--------8--------8--------8---------|
|-----------------------------------------------------------------------------|
|-----------------------------------------------------------------------------|
|-----------------------------------------------------------------------------|


|------11--------8--------11--------8--------6--------6--------6--------6-----|
|----9----9----9---9----9----9----9---9----9---9----9---9----9---9----9---9---|
|--8---------8--------8---------8--------8--------8--------8--------8---------|
|-----------------------------------------------------------------------------|
|-----------------------------------------------------------------------------|
|-----------------------------------------------------------------------------|
|									      |
|Guitar 2								      |
|-----------------------------------------------------------------------------|
|-----------------------------------------------------------------------------|
|--6-6-6-6-6-10-10-10-6--6-6-6-6--8-8-8---------------------------------------|
|--6-6-6-6-6-10-10-10-6--6-6-6-6--8-8-8--6--6-6-6-6-6-6-6-6-6-6-6-6-6-6-6-6---|
|--4-4-4-4-4-8--8--8--4--4-4-4-4--6-6-6--6--6-6-6-6-6-6-6-6-6-6-6-6-6-6-6-6---|
|----------------------------------------4--4-4-4-4-4-4-4-4-4-4-4-4-4-4-4-4---|

Chorus

Guitar 2
|---------------------------------------------------------------------|
|---------------------------------------------------------------------|
|-------------------8-8-8-8-8-8-8-8--6-6-6-6-6-6-6--------------------|
|--6-6-6-6-6-6-6-6--8-8-8-8-8-8-8-8--6-6-6-6-6-6-6--6-6-6-6--8-8-8-8--|
|--6-6-6-6-6-6-6-6--6-6-6-6-6-6-6-6--4-4-4-4-4-4-4--6-6-6-6--8-8-8-8--|
|--4-4-4-4-4-4-4-4----------------------------------4-4-4-4--6-6-6-6--|


|----------------------------------------------------------------------------------|
|----------------------------------------------------------------------------------|
|--10-10-10-10-10-10-10-10--8-8-8-8-8-8-8-8--6-6-6-6-6--10-10-10-6-6-6-6-6--8-8-8--|
|--10-10-10-10-10-10-10-10--8-8-8-8-8-8-8-8--6-6-6-6-6--10-10-10-6-6-6-6-6--8-8-8--|
|--8--8--8--8--8--8--8--8---6-6-6-6-6-6-6-6--4-4-4-4-4--8--8--8--4-4-4-4-4--6-6-6--|
|----------------------------------------------------------------------------------|


Guitar 1
|---------------------------------------------------|
|--6--6--6--6--6--6--6--6--6--6--6--6--6--6--6--6---|
|---------------------------------------------------|
|---------------------------------------------------|
|---------------------------------------------------|
|---------------------------------------------------|
|						    |
|Guitar 2					    |
|---------------------------------------------------|
|---------------------------------------------------|
|--10-10-10-10-10-10-10-10-10-10-10-10-10-10-10-10--|
|--10-10-10-10-10-10-10-10-10-10-10-10-10-10-10-10--|
|--8--8--8--8--8--8--8--8--8--8--8--8--8--8--8--8---|
|---------------------------------------------------|

Bridge

Guitar 1 (Plays the same part all the way through) - End on 13
|----------------------------------------|--------------------------------------|
|--6-6-4-6-6-6-4-6-6-6-4-6-/-13-13-13-13-|-6-6-4-6-6-6-4-6-4-6-6-/-13-13-13-13--|
|----------------------------------------|--------------------------------------|
|----------------------------------------|--------------------------------------|
|----------------------------------------|--------------------------------------|
|----------------------------------------|--------------------------------------|


Guitar 2
|---------------------------------------------------------------------------| X2
|---------------------------------------------------------------------------|
|--6-6-6-6-6-6-6-6-6-6-6-6-6-6-6-6-10-10-10-10-10-10-10-10-8-8-8-8-8-8-8-8--|
|--6-6-6-6-6-6-6-6-6-6-6-6-6-6-6-6-10-10-10-10-10-10-10-10-8-8-8-8-8-8-8-8--|
|--4-4-4-4-4-4-4-4-4-4-4-4-4-4-4-4-8--8--8--8--8--8--8--8--6-6-6-6-6-6-6-6--|
|---------------------------------------------------------------------------|


|---------------------------------------------------------------------------|
|---------------------------------------------------------------------------|
|----------------------------------10-10-10-10-10-10-10-10-8-8-8-8-8-8-8-8--|
|--8-8-8-8-8-8-8-8-8-8-8-8-8-8-8-8-10-10-10-10-10-10-10-10-8-8-8-8-8-8-8-8--|
|--8-8-8-8-8-8-8-8-8-8-8-8-8-8-8-8-8--8--8--8--8--8--8--8--6-6-6-6-6-6-6-6--|
|--6-6-6-6-6-6-6-6-6-6-6-6-6-6-6-6------------------------------------------|


|----------------------------------------------------------------------|
|----------------------------------------------------------------------|
|--6-6-6-6-6-6-6-6-6-6-6-6-6-6-6-6-6-6-6-6-6-6-6-6-6-6-6-6-6-6-6-6-----|
|--6-6-6-6-6-6-6-6-6-6-6-6-6-6-6-6-6-6-6-6-6-6-6-6-6-6-6-6-6-6-6-6--6--|
|--4-4-4-4-4-4-4-4-4-4-4-4-4-4-4-4-4-4-4-4-4-4-4-4-4-4-4-4-4-4-4-4--6--|
|-------------------------------------------------------------------4--|

Chorus

Guitar 2
|---------------------------------------------------------------------|
|---------------------------------------------------------------------|
|-------------------8-8-8-8-8-8-8-8--6-6-6-6-6-6-6--------------------|
|--6-6-6-6-6-6-6-6--8-8-8-8-8-8-8-8--6-6-6-6-6-6-6--6-6-6-6--8-8-8-8--|
|--6-6-6-6-6-6-6-6--6-6-6-6-6-6-6-6--4-4-4-4-4-4-4--6-6-6-6--8-8-8-8--|
|--4-4-4-4-4-4-4-4----------------------------------4-4-4-4--6-6-6-6--|


|----------------------------------------------------------------------------------|
|----------------------------------------------------------------------------------|
|--10-10-10-10-10-10-10-10--8-8-8-8-8-8-8-8--6-6-6-6-6--10-10-10-6-6-6-6-6--8-8-8--|
|--10-10-10-10-10-10-10-10--8-8-8-8-8-8-8-8--6-6-6-6-6--10-10-10-6-6-6-6-6--8-8-8--|
|--8--8--8--8--8--8--8--8---6-6-6-6-6-6-6-6--4-4-4-4-4--8--8--8--4-4-4-4-4--6-6-6--|
|----------------------------------------------------------------------------------|


Guitar 1
|------8--------8--------11--------11--------8--------8--------6--------6-----|  x2
|----9---9----9---9----9----9----9----9----9---9----9---9----9---9----9---9---|
|--8--------8--------8---------8---------8--------8--------8--------8---------|
|-----------------------------------------------------------------------------|
|-----------------------------------------------------------------------------|
|-----------------------------------------------------------------------------|


|-----6--------6--------6--------8---|
|---9---9----9---9----9---9----9---8-|
|-8--------8--------8--------8-------|
|------------------------------------|
|------------------------------------|
|------------------------------------|

Guitar 2 - use reverb and light delay - rock a volume pedal forward and pull back, let 
delay and reverb ring note
|---------<11>-----------------------|
|------------------------------------|
|------------------------------------|
|------------------------------------|
|------------------------------------|
|------------------------------------|
Tap to rate this tab
# A B C D E F G H I J K L M N O P Q R S T U V W X Y Z