Song name
# A B C D E F G H I J K L M N O P Q R S T U V W X Y Z

Hillsong - Run tab

Hillsong - Run

Tabbed from the Hillsong Creative DVD version.
Use a dotted 8th note delay

Intro Line/Tag

e-------------------------------------------------------------------------9---9-|
b-11-11-11-11-9-11-12-11-11-11-7-7-9-9-6-6-11-11-11-11-9-11-12-11-11-11-7---7---|
g-------------------------------------------------------------------------------|
d-------------------------------------------------------------------------------|
a-------------------------------------------------------------------------------|
E-------------------------------------------------------------------------------|

Verse 1 line
e---11---------11--------------------------------------|
b-------11--9------11--9----11/12-12-12-12-12-12-12-12-|
g-11--11--11-11--11--11-11--10/11-11-11-11-11-11-11-11-|
d------------------------------------------------------|
a------------------------------------------------------|
E------------------------------------------------------|

"Solo"

e-14-13----14-13------------------------------------|
b-------14-------14----14----14------12-12-12-12-12-|
g-------------------11----10----9s11-11-11-11-11-11-|
d---------------------------------------------------|
a---------------------------------------------------|
E---------------------------------------------------|

Chorus Riff

e-----------------------------------------------------------------|
b-----7-7-6-6---------7-7-6-6---------7-7-6-6-----------6---------|
g-6-6---------6-6-6-6---------6-6-6-6---------6-6-8-8-8---8-8-6-6-|
d-----------------------------------------------------------------|
a-----------------------------------------------------------------|
E-----------------------------------------------------------------|

Verse: Power Chords:
D#,D#,D#,D#,D#,B,B,B,F#,F#,F#,F#,F#,C#,C#,C# (repeat)

  D#  B   F#  C#
e-x---x---x---x-|
b-x---x---x---x-|
g-8---4---x---6-|
d-8---4---4---6-|
a-6---2---4---4-|
E-x---x---2---x-|

Verse: High-Strung Jam (palm mute, listen for changes)

e----------------------------|
b-11-11-9--9--11--11--12--12-|
g-11-11-11-11-11--11--11--11-|
d----------------------------|
a----------------------------|
E----------------------------|

Order:

Intro line x2
Verse line x1
Verse High Strung x1
Verse line x1
Chorus line x2
Intro line x1
Solo x1
Chorus line x4
Intro Line x2
Chorus riff x2 (Palm mute)
Verse high-strung (Palm mute)
Chorus riff x1
Verse high strung x2 (NO PALM MUTE)
Intro line
Tap to rate this tab
 
# A B C D E F G H I J K L M N O P Q R S T U V W X Y Z