Song name
# A B C D E F G H I J K L M N O P Q R S T U V W X Y Z

Hillsong - As The Deer tab

akin akin lang to mga tol .... go get easy on me ... this is my first tab ..... sana magustuhan
niyo  ...:] Comments ? just E-mail me .. gaazekage@yahoo.com ...

Intro:
    D          A           Bm
e|--2----5-----5---2--0-------------0--3-2-0-----|
B|-------------------------3------------------3--|
G|-----2---2-----2--------------4----------------|
D|--0-------------------------4------------------|
A|-------------0------0----2-----------0---0-----|
E|-----------------------------------------------|

   G      A         D
e|--7-7-7--5------2--5------2---------|
B|------------------------3---3---3---|
G|----------------------2-------2-----|
D|-------------------0----------------|
A|---------0--0-----------------------|
E|--3---3-----------------------------|


    D          A           Bm
e|--2----5-----5---2--0-------------0--3-2-0-----|
B|-------------------------3------------------3--|
G|-----2---2-----2--------------4----------------|
D|--0-------------------------4------------------|
A|-------------0------0----2-----------0---0-----|
E|-----------------------------------------------|


e|---------2--0---------------2---------|
B|--3---------------3--3----3---3---3---|
G|----------------2-------2-------2-----|
D|------0-------2------0----------------|
A|----2-------0-------------------------|
E|--3-----------------------------------|


  yan lang muna .... hehehe ...enjoy playing this song ... :)
Tap to rate this tab
# A B C D E F G H I J K L M N O P Q R S T U V W X Y Z