Song name
# A B C D E F G H I J K L M N O P Q R S T U V W X Y Z

Hillsong - No Reason To Hide tab

Intro & Verse 1: I use a 8 dotted delay similar to The Time Has come,300ms in my digital delay.
-------------------------------|
-----followed by--"-----11-13"-|
--13---------------13-13-------|
-------------------------------|
-------------------------------|
-------------------------------|
rpt each note several times

end with 13 g string at "the disguise is off..."

Followed by: octaves
------------------------|
------------------------|
--13-12--8--13-12--6----|
------------------------|
--11-10--6--11-10--4----|
------------------------|

------------------------|
------------------------|
--13-12--8--6-----------|
------------------------|
--11-10--6--4-----------|
------------------------|

Chords
Intro: Bb
Verse 1: Ab Db Fm Db
Ab Db Fm Db

Chorus: Power Chords
I use a heavy distortion using a Class A-30 top Boost with a Classic Dist. stomp

Ab Db Fm-Ab Db

Pre-Verse 2:
------------------------|
------------------------|
---13-15-17-------------|
--------------2x--------|
---11-13-15-------------|
------------------------|

Verse 2:
-----------------------------|
----followed by-"------------|
-13--------------13-12-15-17-|
-----------------------------|
-----------------------------|
-----------------------------|

------------------------|
------------------------|
-13-12-15-17-13-12-13"--|
------------------------|
------------------------|
------------------------|
rpt each note several times

Followed by: octaves
------------------------|
------------------------|
--13-12--8--13-12--6----|
------------------------|
--11-10--6--11-10--4----|
------------------------|

------------------------|
------------------------|
--13-12--8--6-----------|
------------------------|
--11-10--6--4-----------|
------------------------|

Intrumental: I used the Lead + Delay patch from above
------------------------------|
--------------------13-14-16--|
-13-13--17----13-13-----------|
-----------3x-----------------|
-11-11--15----11-11-----------|
------------------------------|

Followed by:
----------------------------16----|
-----11----13----14----16---18b19-|
-13--14b15-15b16-16b17-18b19------|
----------------------------------|
-11-------------------------------|
----------------------------------|
rpt each note several times


Bridge: Octaves
----------------------------|
----------------------------|
--13--13-11--11-10--10-6----|
----------------------------|
--11--11-9---9--8---8--4----|
----------------------------|

Strum

----------------------------|
----------------------------|
--13--15--17--18------------|
----------------------------|
--11--13--15--16------------|
----------------------------|
Tap to rate this tab
 
# A B C D E F G H I J K L M N O P Q R S T U V W X Y Z