Hillsong - Youll Come tab

You'll Come
Hillsong
Album: This Is Our God
By: Brooke Fraser
Tabbed By: Emilio
Tuning:Standard

INTRO
e|---------------------------------------------------------------------------|
B|---------------------------------------------------------------------------|
G|--11--13--11--13--14-------------------------------------------------------|
D|--11--13--11--13--14-------------------------------------------------------|
A|--9-/-11-\-9-/11-/12-------------------------------------------------------|
E|---------------------------------------------------------------------------|
Verse
e|---------------------------------------------------------------------------|
B|---------------------------------------------------------------------------|
G|--9---7---11---14----------------------------------------------------------|
D|--9---7---11---14----------------------------------------------------------|
A|--7-\-5-/-9-/--12----------------------------------------------------------|
E|---------------------------------------------------------------------------|
Pre Chorus
e|---------------------------------------------------------------------------|
B|---------------------------------------------------------------------------|
G|-----1--4----6-------1--4----6---------------------------------------------|
D|--4--2--4----6----4--2--4----6---------------------------------------------|
A|--4--2--2----4----4--2--2----4---------------------------------------------|
E|--2---------------2--------------------------------------------------------|
Chorus Line
e|--------------------------------11-----------------------------------------|            
B|-------12-12--12-12-9---------12------------------------------12-12----12--|
G|------------11--9-----9---------------11-13-11--9-------------------11----9|
D|-9-9h11-----------------9h11-9--------9/-11-\9----11-9--9-9h11-------------|
A|---------------------------------------------------------------------------|
E|---------------------------------------------------------------------------|

e|-------------------------9-------------------------------------------------|
B|-12-10-------------------9--10---------------------------------------------|
G|----11----11-11-11-11----9--11---------------------------------------------|
D|-------------------------9--12---------------------------------------------|
A|-------------------------9-------------------------------------------------|
E|---------------------------------------------------------------------------|
Chorus
e|---------------------------------------------------------------------------|
B|---------------------------------------------------------------------------|
G|--9---11--14---9---14------------------------------------------------------|
D|--9---11--14---9---14------------------------------------------------------|
A|--7-/-9-/-12-\-7-/-12------------------------------------------------------|
E|---------------------------------------------------------------------------|

e|---------------------------------------------------------------------------|
B|---------------------------------------------------------------------------|
G|---------------------------------------------------------------------------|
D|---------------------------------------------------------------------------|
A|---------------------------------------------------------------------------|
E|---------------------------------------------------------------------------|

e|---------------------------------------------------------------------------|
B|---------------------------------------------------------------------------|
G|---------------------------------------------------------------------------|
D|---------------------------------------------------------------------------|
A|---------------------------------------------------------------------------|
E|---------------------------------------------------------------------------|

e|---------------------------------------------------------------------------|
B|---------------------------------------------------------------------------|
G|---------------------------------------------------------------------------|
D|---------------------------------------------------------------------------|
A|---------------------------------------------------------------------------|
E|---------------------------------------------------------------------------|


************************************

| /   slide up
| \   slide down
| h   hammer-on
| p   pull-off
| ~   vibrato
| +   harmonic
| x   Mute note
| b   Bend
| pb  Pre-bend
| br  Bend release
| pbr Pre-bend release
| brb Bend release bend

************************************
Tap to rate this tab
 
# A B C D E F G H I J K L M N O P Q R S T U V W X Y Z