Song name
# A B C D E F G H I J K L M N O P Q R S T U V W X Y Z

Hillsong - Lord I Lift Your Name On High tab

This just my own intro version of the song. I hope you like it.

e|---------3-2-0-----------------------|
B|-----0-3-------3-3---3---0---0---0---|
G|-0-----------------0---0---0---0-----|
D|---0-------------0-----------------0-|
A|---------3---------------3-----------|
E|-3-------------------------------3---|

e|-----3-2-0---0-----------------|
B|-0-3-------3---3---0---0---0---|
G|-----------------0---0---0-----|
D|-------------0---------------0-|
A|-----3-------------3-----------|
E|---------------------------3---|

Just follow the melody. ^_^
Tap to rate this tab
# A B C D E F G H I J K L M N O P Q R S T U V W X Y Z