Song name
# A B C D E F G H I J K L M N O P Q R S T U V W X Y Z

Hillsong - God Is Able tab

Here are the leads for this song.

Tabbed by Brandon Bushnell
Tuning (EADGBE)

 Intro
E|--9p7-7h9-9p7--11-12-12-11--9p7-7h9-9p7----------|
B|-----------------------------------------7-9-9-12| 4x
G|-------------------------------------------------|
D|-------------------------------------------------|
A|-------------------------------------------------|
E|-------------------------------------------------|

   Verse
E|------------------------------------------------------------------------|
B|----------12-------12-------12---------------11-------11-------11-------|
G|----11-------11-------11-------11------11-------11-------11-------11----|
D|--9----9--------9--------9--------9--9----9--------9--------9--------9--|
A|------------------------------------------------------------------------|
E|------------------------------------------------------------------------|


E|-----------------------------------|
B|-------12-------12-------12--------|
G|--9-9------9-9------9-9------------|2x
D|-----------------------------------|
A|-----------------------------------|
E|-----------------------------------|


E|-------7-----------6-------|
B|-----------9-----------7---|
G|--6/8---------6/8----------|1x
D|---------------------------|
A|---------------------------|
E|---------------------------|


   Pre Chorus
E|------------------------------------------------------------------|
B|-----12-14-12---------12-14-12--------12-14-12-11-----12-14-12----|
G|--11----------11---11----------9---11--------------11----------9--|
D|------------------------------------------------------------------|
A|------------------------------------------------------------------|
E|------------------------------------------------------------------|



  Chorus
E|------------------------------------------------------|
B|---------12-12--14-14-14-14-14-14--12-12-12-12-12-12--|3x
G|--11-11-----------------------------------------------|
D|------------------------------------------------------|
A|------------------------------------------------------|
E|------------------------------------------------------|


E|--------------11-11-11-11-11-11--9-9-9-9-9-9--|
B|-------12-12----------------------------------|
G|--9-9-----------------------------------------|
D|----------------------------------------------|
A|----------------------------------------------|
E|----------------------------------------------|


 Instrumental   Follow Rhythem Of Song
E|---14---12-----11---9---6---7-----14--11----9---12----|
B|----0----0-----0----0---0---0------0---0----0---0-----|
G|---11----9-----8----6---3---4-----11---8----6---9-----|
D|------------------------------------------------------|
A|------------------------------------------------------|
E|------------------------------------------------------|


  Bridge
E|-------------------------|
B|---12---12----11---12----|
G|---9----11----11---9-----|
D|--------9-----9----------|
A|-------------------------|
E|-------------------------|

Thats it have fun.
Tap to rate this tab
# A B C D E F G H I J K L M N O P Q R S T U V W X Y Z