Song name
# A B C D E F G H I J K L M N O P Q R S T U V W X Y Z

Hillsong - Open My Eyes tab

Open My Eyes - Lang/Morgan

The original recording is in G#, but the worship team here at my church does it in G. If 
you feel compelled to play it in G#, capo the first fret and play along with the 
recording. This transcription is how we play it in G.

Intro/Verse:
  G                 D       Em        C
|-----------------|-----------------|-----------------|
|-----------------|-----------------|-----------------|
|-----------------|-----------------|-----------------|
|-5-5-5-5-5-5-5-5-|-5-5-5-5-5-5-5-5-|-5-5-5-5-5-5-5-5-|
|-----------------|-----------------|-----------------|
|-----------------|-----------------|-----------------|


[Verse]
 C            G            D   Em          C
In the stars I see your majesty displayed,
         G                D       Em           C
In the heavens all your wonders are proclaimed,
               G                    D     Em
I see your fame in all of the earth, and I,
 C          G                  D
Seek to know the ways of your heart,


 [Riff 1]
|----------------------------------------20-|
|-19-19-19-20-20-20-19-19-19-20-20-20-------|
|-------------------------------------19----|
|-------------------------------------------|
|-------------------------------------------|
|-------------------------------------------|

 C            G            D   Em          C        (Riff 1)
Through the seas and open skies I hear your praise,

 C            G            D   Em          C   (Riff 1)
As the shout of all creation lifts your name,
                  G                    D      Em
I hear your praise in all of the earth, and I,
 C          G                  D
Seek to know the ways of your heart,


 [Riff 2]
|-------------|-------------|-------------|-----------|
|-------------|-------------|-------------|-----------|
|-9---7-------|-9---7-------|-9---7-------|-9---7-----|
|---7---5-4-5-|---7---5-4-2-|---7---5-4-5-|---7---5-4-|
|-------------|-------------|-------------|-----------|
|-------------|-------------|-------------|-----------|


[Chorus] (Riff 2 throughout)
 D          G                    Em
So open my eyes oh God, Open my heart to see,
         C                                 G
All the wonders and the power of your name,
                                  Em
By your grace I'll live, by your grace I'll see,
            C
For my life and my Salvation is in you,


[Verse]
For you take the sinners heart and bring new life,
Through the cross we are restored within your light,
I know your love is all that I need, and I,
Seek to know the ways of your heart,

[Chorus]

[Bridge] (with Riff 2 played staccato)

G C G D Em C G D

[Riff 3]
|----------19-|
|-19-20-------|
|-------19----|
|-------------|
|-------------|
|-------------|

(Chorus) Played open/light with riff 3
(Chorus) until end
Tap to rate this tab
# A B C D E F G H I J K L M N O P Q R S T U V W X Y Z