Song name
# A B C D E F G H I J K L M N O P Q R S T U V W X Y Z

Hillsong - My Future Decided tab

-------------------------------------------------------------------------------
                             SONG NAME - Band Name
-------------------------------------------------------------------------------
Tabbed by: 
E-mail: 

Tuning:


e|-----------------------------------------------------------------------|
B|-----------------------------------------------------------------------|
G|-----------------------------------------------------------------------|
D|11-11-------------11-11-----12-12-11-11-7-7-7-7-7-7-7-7-7-7-7-7-9-9-9-9|
A|------9-9-9-9-9-9-------9-9--------------------------------------------|
E|-----------------------------------------------------------------------|

e|-----------------------------------------------------------------------|
B|-----------------------------------------------------------------------|
G|-----------------------------------------------------------------------|
D|11-11-------------11-11-----12-12-11-11-7-7-7-7-7-7-7-7-7-7-7-7-9-9-9-9|
A|------9-9-9-9-9-9-------9-9--------------------------------------------|
E|-----------------------------------------------------------------------|

e|-----------------------------------------------------------------------|
B|-----------------------------------------------------------------------|
G|-----------------------------------------------------------------------|
D|-----------------------------------------------------------------------|
A|-4-4-------------4-4-----5-5-4-4-0-0-0-0-0-0-0-0-0-0-0-0-2-2-2-2-------|
E|-----2-2-2-2-2-2-----2-2-----------------------------------------------|

e|-----------------------------------------------------------------------|
B|-------------------------------------------------2-2-2-2-2-2-2-2-2-----|
G|-------------------------------------------------x-x-x-x-x-x-x-x-x-----|
D|-------------------------------------------------4-4-4-4-4-4-4-4-4-----|
A|-4-4-------------4-4-----5-5-4-4-0-0-0-0-0-0-0-0-----------------------|
E|-----2-2-2-2-2-2-----2-2-----------------------------------------------|




| /  slide up
| \  slide down
| h  hammer-on
| p  pull-off
| ~  vibrato
| +  harmonic
| x  Mute note
===============================================================================
Tap to rate this tab
 
# A B C D E F G H I J K L M N O P Q R S T U V W X Y Z