Guitaretab - guitar tabs
Song name
# A B C D E F G H I J K L M N O P Q R S T U V W X Y Z
Home / H / Hillsongs / Free tab

Hillsongs - Free tab

TITLE: Free
BAND: Hillsongs United
TABBED BY: jULjUL
E-Mail ad: chupuclues@yahoo.com

Standard Tuning
INTRO:
          E        |        F#m
e|-x-x-x--x--x-x-x---x-x-x--x--x-x-x-|
B|-5-x-4--x--4-x-5---7-x-5--x--5-x-4-|
G|-4-x-4--x--4-x-4---6-x-6--x--6-x-6-|
D|-2-x-2--x--2-x-2---4-x-4--x--7-x-4-|
A|-x-x-x--x--x-x-x---x-x-x--x--x-x-x-|
E|-x-x-x--x--x-x-x---x-x-x--x--x-x-x-|

VERSE:
e|-x-x-x--x--x-x-x---x-x-x--x--x-x-x-|
B|-5-x-4--x--4-x-5---7-x-5--x--5-x-4-|
G|-4-x-4--x--4-x-4---6-x-6--x--6-x-6-|   3x
D|-2-x-2--x--2-x-2---4-x-4--x--7-x-4-|
A|-x-x-x--x--x-x-x---x-x-x--x--x-x-x-|
E|-x-x-x--x--x-x-x---x-x-x--x--x-x-x-|

Would you believe me if I say
We are the ones who can make the change 
In the world today

Would you believe me if I say
That all of your dreams in your heart can come true 
Today, yeah


Pre-chorus: E

Chorus: *distortion*
     2x          
E|-x-x-x-x--|
B|-x-x-x-x--|
G|-9-x-x-x--|
D|-9-9-x-11-|
A|-7-9-9-11-|
E|-0-7-9-9--|

Now if I had wings I would fly
Its all that I need you are
And if the world came in around me
To you I would still hold on

E|-x-x-x-0-|  guitar 2 |--------------|
B|-x-x-x-0-|           |-6-5-6--6-5---|
G|-x-x-x-1-|           |------------5-|
D|-9-7-9-2-|           |--------------|
A|-9-7-9-2-|           |--------------|
E|-7-5-7-0-|           |--------------|
            
Coz youíre all that I believe
And the one that created me
Jesus, because of you...

E|-0-0-0-0-| guitar 2 |-------------------------|
B|-0-0-0-0-|          |-8p0-8p0-8---------------|
G|-4-2-4-1-|          |---------------6-6h8-6---|
D|-4-2-4-2-|          |-----------7h9---------9-|
A|-2-0-2-2-|          |-------------------------|
E|-x-x-x-0-|          |-------------------------|

Iím free..
[ Tab from: http://www.guitaretab.com/h/hillsongs/131898.html ]
VERSE 2:
e|-x-x-x--x--x-x-x---x-x-x--x--x-x-x-|
B|-5-x-4--x--4-x-5---7-x-5--x--5-x-4-|
G|-4-x-4--x--4-x-4---6-x-6--x--6-x-6-|   3x
D|-2-x-2--x--2-x-2---4-x-4--x--7-x-4-|
A|-x-x-x--x--x-x-x---x-x-x--x--x-x-x-|
E|-x-x-x--x--x-x-x---x-x-x--x--x-x-x-|


CHORUS

BRIDGE: B B A E
E|-x-x-x-0-|
B|-x-x-x-0-|
G|-x-x-x-1-|
D|-9-9-7-2-|
A|-9-9-7-2-|
E|-7-7-5-0-|

Just live your life
With God beside
You wonít regret one moment on earth

E|-0-0-0-|
B|-0-0-0-|
G|-4-1-2-|
D|-4-2-2-|
A|-2-2-0-|
E|-x-0-x-|

Give all that you can for God
For God

CHORUS:
     2x          
E|-x-x-x-x--|
B|-x-x-x-x--|
G|-9-x-x-x--|
D|-9-9-x-11-|
A|-7-9-9-11-|
E|-0-7-9-9--|

Now if I had wings I would fly
Its all that I need you are
And if the world came in around me
To you I would still hold on

E|-x-x-x-0-|  guitar 2 |--------------|
B|-x-x-x-0-|           |-6-5-6--6-5---|
G|-x-x-x-1-|           |------------5-|
D|-9-7-9-2-|           |--------------|
A|-9-7-9-2-|           |--------------|
E|-7-5-7-0-|           |--------------|
            
Coz youíre all that I believe
And the one that created me
Jesus, because of you...

E|-x-x-x-x--|
B|-x-x-x-x--|
G|-9-x-x-x--|
D|-9-9-x-11-|
A|-7-9-9-11-|
E|-0-7-9-9--|

Now if I had wings I would fly
Its all that I need you are
And if the world came in around me
To you I would still hold on

E|-x-x-x-0-|  guitar 2 |--------------|
B|-x-x-x-0-|           |-6-5-6--6-5---|
G|-x-x-x-1-|           |------------5-|
D|-9-7-9-2-|           |--------------|
A|-9-7-9-2-|           |--------------|
E|-7-5-7-0-|           |--------------|
            
Coz youíre all that I believe
And the one that created me
Jesus, because of you...

E|-0-0-0-0-| guitar 2 |-------------------------|
B|-0-0-0-0-|          |-8p0-8p0-8---------------|
G|-4-2-4-1-|          |---------------6-6h8-6---|
D|-4-2-4-2-|          |-----------7h9---------9-|
A|-2-0-2-2-|          |-------------------------|
E|-x-x-x-0-|          |-------------------------|

Iím free..
Iím free..
Iím free..

End on A

not sure of the lyrics though..
God Bless..
Related for Free tab