Guitaretab - guitar tabs
Song name
# A B C D E F G H I J K L M N O P Q R S T U V W X Y Z

Hillsongs - Everyday tab

----------------------------------------------------------------------------
			     EVERYDAY Ė Hillsong United
----------------------------------------------------------------------------
Tabbed by: Hrdcore
Email: s-skater@juno.com

Iíd say this tab is pretty darn close. Iím afraid Iím gonna have to leave the rhythm up
you. I think Hillsong uses two guitars in most of the second half, but Iím just gonna
this so that one guitar can get it. It may be kinda hard to grasp at first but study it 
a while and listen to the song. Youíll get it. Also, itís kinda hard to tell when they
playing the standard power chord or the octave power chord (just lift third finger)

Tuning: standard

[INTRO/VERSE]:                     Öwith an optional ending before chorus:
e|-------0---------------0---------||--------0------------------|
B|----7----4---------7-----4---4--:||---7------7---------4------|
G|--4--4-----------4---4-----6-----||-4---4------6-6-4-6---6-4--|
D|---------------------------------||---------------------------|
A|--------------------------------:||---------------------------|
E|---------------------------------||---------------------------|
[ Tab from: http://www.guitaretab.com/h/hillsongs/134089.html ]
[INTERLUDE] between 1st and 2nd verse:
Most of this is off beat.
e|-----------------|---------------------|
B|-----------------|---------------------|
G|-9--8-6-4--3-4---|------9/11-8-6-4--3--|
D|-x--x-x-x--x-x---|------x-x--x-x-x--x--|
A|-7--6-4-2--1-2---|------7/9--6-4-2--1--|
E|-----------------|---------------------|

[INTRO/VERSE]

[CHORUS]: I just tabbed octave chords because thatís more what it sounds like they are
to me, but if youíre looking for more power use power chords.
e|-----------------|
B|-----------------|
G|-xxxx8--5--------|
D|-xxxxx--x--6--4--|
A|-xxxx6--7--x--x--|
E|-----------4--2--|

Bridge: play [INTRO/VERSE] repeating the first section three times and the ending once
every phrase and eventually switch to the below tab, or just play the below tab all the
through, building it.

[optional bridge addition]:
light P.M-----             Building up to this: (wide open)
e|-------------------------|----------------|
B|-------------------------|----------------|
G|-----9-------------------|--4--9--13--11--|
D|--9--9--13--11-----------|--4--9--13--11--|
A|--9--7--13--11-----------|--2--7--11--9---|
E|--7-----11--9------------|----------------|

[CHORUS] repeat as needed, ending on a B power chord:

e|------|
B|------|
G|------|
D|--9---|
A|--9---|
E|--7---|

| P.M. palm mute
| /    slide up
| \    slide down
| h    hammer-on
| p    pull-off
| ~    vibrato
| +    harmonic
| x    Mute note
============================================================================
Related for Everyday tab