Song name
# A B C D E F G H I J K L M N O P Q R S T U V W X Y Z

Hillsongs - Forever tab

Artist: Hillsong
Album: You Are My World
Title: Forever
Transcribed by: Noel Jon Jumalon (vincouniversum@gmail.com)

INTRO: D - D2/F# - D2/G - Bm7 - A7sus4 - A

Basic plucking, please figure the rest out for yourself. :D
    D2    D2/F#                D2/G    Bm7 is, well, Bm7.
e|----0-||----0-|    |----0-||----0-|
B|---3--||---3--|    |---3--||---3--|
G|--2---||--2---| OR |--2---||--2---|
D|-0----||-4----|    |------||------|
A|------||------|    |------||------|
E|------||------|    |-2----||-3----|

  A7sus4    A
e|------||------|
B|-3----||-2----|
G|------||-2----|
D|---2--||------|
A|-0----||-0----|
E|------||------|

  Em7/B* is played this way...
e|-3----||-3----|
B|-3----||-3----|
G|------||-0----|
D|------||-2----|
A|-2----||-3----|
E|------||------|
           Cadd9
           ...which is next to Cadd9
Get the picture? :D

VERSE:
D2
Ill Worship at Your Throne
D2/F#
Whisper my own love song
D2/G
With all my heart Ill sing
Bm7        A7sus4 - A
For You my Dad and King
D2
Ill live for all my days
D2/F#
To Put a smile on Your face
D2/G
And when we finally meet
Bm7        A7sus4 - A
Itll be for eternity

Em7       Bm7            A7sus4
And Oh how wide You open up Your arms
A
When I need Your love
  Em7    Bm7            A7sus4
And how far You would come
   A
If ever I was lost
Cadd9   Em7/B*            A7sus4
And You said that all You feel for me
    A            Cadd9
Is undying love
         Em7/B*                Em7-D/F#-G  
That You showed me through the cross

CHORUS:
A
Ill worship You my God
A/C#
Ill worship You my God
D
I love You
F#m7   E
I love You
A
Forever I will sing
A/C#           D
Forever I will be with You
F#m7    E
Be with You
Tap to rate this tab
# A B C D E F G H I J K L M N O P Q R S T U V W X Y Z