Song name
# A B C D E F G H I J K L M N O P Q R S T U V W X Y Z

Hillsongs - Kingdom Come tab

Kingdom Come
artist: Hillsongs
tuning: standard
tabbed by Ferdinand Bato
email/friendster: tobatits_0405@yahoo.com

intro:2 times

e|-------------------------555-------------------777---------------------|
B|--777-555-777-555-77-5-7-----555-777-555-77-5-7----555-777-555-77-5----|
G|-----------------------------------------------------------------------|
D|-----------------------------------------------------------------------|


e|----------------------------------------------|
B|---0--333-222-0-333-222--0---------0----------|
G|----------------------------------------------|

verses:

e|------------------------------------|
B|------------------------------------|
G|------------------------------------|
D|--999---555///--777----44----555----|
A|--999---555///--777----44----555----|
E|--777---333///--555----22----333----|

pre-chorus:

e|--------------------555-777-888-101010--10-------|
B|--------------------555-777-888-101010--10-------|
G|--------------------444-666-777--9-9-9---9-------|
D|---777777777777777-------------------------------|
A|---777777777777777-------------------------------|
E|---555555555555555-------------------------------|

chorus:

e|----------------------------------------|
B|----------------------------------------|
G|-777----------------777-----------------|
D|-777-555--999--555--777--555--999-555---|
A|-555-555--999--333--555--555--999-555---|
E|-----333--777--333-------333--777-333---|

solo:

e|-------------------------555-------------------777---------------------|
B|--777-555-777-555-77-5-7-----555-777-555-77-5-7----555-777-555-77-5----|
G|-----------------------------------------------------------------------|
D|-----------------------------------------------------------------------|


e|----------------------------------------------|
B|---0--333-222-0-333-222--0---------0----------|
G|----------------------------------------------|

Tap to rate this tab
 
# A B C D E F G H I J K L M N O P Q R S T U V W X Y Z