Song name
# A B C D E F G H I J K L M N O P Q R S T U V W X Y Z

Hillsongs - Yours Is The Kingdom tab

Hillsong
Yours Is The Kingdom
God He Reigns
2005

Intro:
e|-6-7-7-7-7-7-6-6--4-2---|
B|-7-7-7-7-7-7-7-7--6-4---|
G|------------------------|
D|------------------------| (x4)
A|------------------------|
E|------------------------|

Verse 1: at 0:31
e|-------9-6--------|
B|---6h7------------|
G|-6----------------|
D|------------------|
A|------------------|
E|------------------|

Refrain: King above Kings 0:45 - 0:51
e|---------6----------|
B|---7---7---7---7----|
G|-6---6-------6------|
D|--------------------| (x4)
A|--------------------|
E|--------------------|

Chorus:
e|---------------------9-7-6---|
B|-7---7---9---7---6---------7-|
G|---6---6---6---6---6---------|
D|-----------------------------| (x7)
A|-----------------------------|
E|-----------------------------|

Interlude:
e|-6-7-7-7-7-7-6-6--4-2---|
B|-7-7-7-7-7-7-7-7--6-4---|
G|------------------------|
D|------------------------| (x2)
A|------------------------|
E|------------------------|

Verse 2:
e|-----------------|-------------|-----------------|-----9------6--|
B|-----7---6-7---7-|-----7---9-7-|-----7---6-7---7-|-7-7----9-9----|
G|-6-6---6-----6---|-6-6---6-----|-6-6---6-----6---|---------------|
D|-----------------|-------------|-----------------|---------------| (x2 except last bar)
A|-----------------|-------------|-----------------|---------------|
E|-----------------|-------------|-----------------|---------------|
        x3                x1             x3

(Repeat Refrain and Chorus)

Interlude 2:
e|-6-7-7-7-7-7-6-6--4-2---|
B|-7-7-7-7-7-7-7-7--6-4---|
G|------------------------|
D|------------------------| (x6)
A|------------------------|
E|------------------------|

(Repeat Refrain twice and Chorus twice)
Tap to rate this tab
 
# A B C D E F G H I J K L M N O P Q R S T U V W X Y Z