Song name
# A B C D E F G H I J K L M N O P Q R S T U V W X Y Z

Hillsongs - Deeper tab

INTRO and VERSE:

E------1-------0----3--------------------------------------------------------|
B-------3-------1---------0-------1-------3-------1---0-----0-------1--------|
G----2-------0----------0-----2-----2---2---2---0---0-----1-----2-----2------|
D--0-------2----------0-----2---2-----0-------2---------2-----2---2----------|
A----------------------------------------------------------------------------|
E----------------------------------------------------------------------------|
 ...Last part of verse...
E---------------------3--------3-------------------------3-----3--3-----3---|
B------3--------1-----------0--------0------3-------1-----------------------|
G----2---2----0--0--------0--------0------2---2---0---0------0--------0-----|
D--0--------2-----------0--------0------0-------2----------0--------0-------|
A---------------------------------------------------------------------------|
E---------------------------------------------------------------------------|

Notice the notes are- Dm, C, G, Am -then, second the time- Dm, C, E,Am-
The last part of the verse is simply- Dm, C, G- I'm not too sure how it
actually goes but this sequence works for me. This is my interpretation of
at least part of the song, God bless!
Tap to rate this tab
# A B C D E F G H I J K L M N O P Q R S T U V W X Y Z