Song name
# A B C D E F G H I J K L M N O P Q R S T U V W X Y Z

Hillsongs - Not Be Shaken tab

E -----------------------------------------------------|
B -----------------------------------------------------|
G -----------------------------------------------------|
D -----------------------------------------------------|
A -9/11--9/0--9/12--9/11--9/11--9/11--9/0--9/12--9/11--|
E -0-----0----0-----0-----0-----0-----0----0-----0-----|

E -----------------------------------------------------|
B -----------------------------------------------------|
G -----------------------------------------------------|
D -----------------------------------------------------|
A -9/11--9/11--9/11--9/0--9/12--9/11--9/11--9/11--9/0--|
E -0-----0-----9-----9----9-----9-----9-----9-----9----|

E -----------------------------------------------------|
B -----------------------------------------------------|
G -----------------------------------------------------|
D --------------------------11--9--7--6--4--2----------|
A -9/12--9/11--9/11--9/11---11--9--7--6--4--2----------|
E -9-----9-----9-----9------9---7--5-------------------|

Then play A and B and then keep repeating this. For the
Chorus play
E,B,A
B
E,B,A
B
E,B,A
B
B
Tap to rate this tab
 
# A B C D E F G H I J K L M N O P Q R S T U V W X Y Z