Song name
# A B C D E F G H I J K L M N O P Q R S T U V W X Y Z

Hillsongs - Hosanna tab

Hosanna - Hillsong United
Tabbed by Micah Bontrager - risewiththefallen@juno.com
This is my first tab.  Sweet song, rad leads.  Enjoy and let me know what you think!

Intro
   C#m                   E                    F#m                 G#m
e|--------------------|--------------------|-------------------|----------------------|
G|--------------------|--------------------|-------------------|----------------------|
B|----9-13----9h11-13-|--------------------|-------------------|---9-13-------9h11-13-|
D|-/11----------------|---9-13-----9h11-13-|------11-14-----14-|-11--------11---------|
A|--------------------|-11------11---------|-11/12-------12----|----------------------|
E|--------------------|--------------------|-------------------|----------------------|
                                                                                       
                  E                    F#m                 G#m
e|--------------------|--------------------|-------------------|-----9---9-------12---|
G|--------------------|--------------------|---------------12--|----------------------|
B|----9-13----9h11-13-|--------------------|-------------------|----------------9-----|
D|-/11----------------|---9-13-----9h11-13-|------11-14--------|----9---9----/11------|
A|--------------------|-11------11---------|-11/12-------12----|-/11------------------|
E|--------------------|--------------------|-------------------|----------------------|

VERSE 1:
E
I see the king of glory
C#m
Coming down the clouds with fire
                F#m                          G#m
The whole earth shakes     The whole earth shakes
e|----------------------|-------------------------|
G|----------------------|-------------------------|
B|----------------------|-------------------------|
D|-----------------7-11-|-------------------13-9--|
A|----------------9-----|-----------------------9-|
E|----------------------|-------------------------|

BREAKDOWN THING: (which is pretty sweet by the way..)

   C#m                                  E
e|----------------------------------------|
G|---------------------------12----10---9-|
B|---9-13---9-13---9-13---9---------------|
D|-11-----11-----11-----11----------------|
A|----------------------------------------|
E|----------------------------------------|

E
I see his love and mercy
C#m
Washing over all our sin
           F#m                    B
The people sing       The people sing


CHORUS:
   E/G#      A       B      C#m      A      C#m      B       B
   Hosanna           Hosanna         Hosanna in the highest
e|-------0-------0-------0-------0-------0-------0-------0-------|
B|-----0---0---0---0---0---0---0---0---0---0---0---0---0---0-----|
G|---4-------6-------8-------9-------6-------9-------8-------8---|
D|---------------------------------------------------------------|
A|---------------------------------------------------------------|
E|---4-------5-------7-------9-------5-------9-------7-------7---|


   E/G#      A       B      C#m      A       B       C#m
   Hosanna           Hosanna         Hosanna in the highest
e|-------0-------0-------0-------0-------0-------0-------0-------|
B|-----0---0---0---0---0---0---0---0---0---0---0---0---0---0-----|
G|---4-------6-------8-------9-------6-------8-------9-----------|
D|---------------------------------------------------------------|
A|---------------------------------------------------------------|
E|---4-------5-------7-------9-------5-------7-------9-----------|

(I can't tell if he finger picks or if he just doesn't play the base notes on the E string)

From here on out he mostly just plays the chords with the acoustic guitars, but I'll tab 
the rest later (I'm feeling lazy right now..haha)

Peace be with you.
Tap to rate this tab
 
# A B C D E F G H I J K L M N O P Q R S T U V W X Y Z