Song name
# A B C D E F G H I J K L M N O P Q R S T U V W X Y Z

Hillsongs - Im Not Ashamed tab

-------------------------------------------------------------------------------
			 I'm Not Ashamed - Hillsong
----------------------------------------------------------------------------
Tabbed by: Brandon Canning
Email: raw-rock-kills-29@hotmail.com

Tuning: Standard (EADGBe)

The great thing about playing worship music is being able to make it your own and still 
God with it. This isn;t exactly what is played on the CD but its what I play and it 
pretty good and exact.


Intro:

e|-----------------------------------|
B|-1/15-12-12-----12/15-12-----------|
G|-----------12-------------12-11h12-|
D|-------------12---------12---------| X2
A|-----------------------------------|
E|-----------------------------------|

e|----------------------------------------|
B|-13-13-12-12-10-10-12-12-13-13-12-12----|
G|------------------------------------9-9-|
D|----------------------------------------|
A|----------------------------------------|
E|----------------------------------------|

e|-----------------------------------------------|
B|-13-13-12-12-10-10-12-12-13-13-12-12-----------|
G|-------------------------------------9-9h10-9~-|
D|-----------------------------------------------|
A|-----------------------------------------------|
E|-----------------------------------------------|

Verse 1: Guitar comes in during the last half of the verse

e|-xxxx---------------xxx---------------|
B|-xxxx---------------xxx---------------|
G|-xxxx---------------xxx---------------|
D|-xxxx-22-55/1010\77-xxx-22-55/1010\77-| X2
A|-xxxx-22-55/1010\77-xxx-22-55/1010\77-|
E|-xxxx-00-33/8-8-\55-xxx-00-33/8-8-\55-|

Pre-Chorus:

This part is hard to tab out but what you basically do is switch picking 13 and 12 on 
B string in quadruple time, then hold the other notes and repeat.

e|--------------------------------------------|
B|-13131212131312121313121213131212-12~-15-13-|
G|--------------------------------------------|
D|--------------------------------------------| X 2
A|--------------------------------------------|
E|--------------------------------------------|

Chorus: You can play this or mess around on the G major scale (GABCDEF#G)

e|-------------------------------------|
B|-------------------------------------|
G|----------77777777----------55555555-|
D|-55555555-77777777-22222222-55555555-|
A|-55555555-55555555-22222222-33333333-|
E|-33333333----------00000000----------|

e|---------------------------------------------|
B|---------------------------------------------|
G|----------77777777-1111111111111111-55555555-|
D|-55555555-77777777-1111111111111111-55555555-|
A|-55555555-55555555-9-9-9-9-9-9-9-9--33333333-|
E|-33333333------------------------------------|

Post-Chorus:

e|----------------------------------------|
B|-13-13-12-12-10-10-12-12-13-13-12-12----|
G|------------------------------------9-9-|
D|----------------------------------------|
A|----------------------------------------|
E|----------------------------------------|

e|--------------------------------------------------------------------------|
B|-13-13-12-12-10-10-12-12-13-13-12-12--------------------------------------|
G|-------------------------------------9-9h10-9h10-9h10-9h10-9h10-9h10-9h10-|
D|--------------------------------------------------------------------------|
A|--------------------------------------------------------------------------|
E|--------------------------------------------------------------------------|

Verse 2:

e|-----------------------------------|
B|-19-15-17-12-15-10-12-8-10-5h6-5h6-|
G|-----------------------------------|
D|-----------------------------------| X 2
A|-----------------------------------|
E|-----------------------------------|

Pre-Chorus: Do the same thing as last time

e|--------------------------------------------|
B|-13131212131312121313121213131212-12~-15-13-|
G|--------------------------------------------|
D|--------------------------------------------| X 2
A|--------------------------------------------|
E|--------------------------------------------|

Chorus:

Once again you can play this or mess around on a G major scale (GABCDEF#G)

e|-------------------------------------|
B|-------------------------------------|
G|----------77777777----------55555555-|
D|-55555555-77777777-22222222-55555555-|
A|-55555555-55555555-22222222-33333333-|
E|-33333333----------00000000----------|

e|---------------------------------------------|
B|---------------------------------------------|
G|----------77777777-1111111111111111-55555555-|
D|-55555555-77777777-1111111111111111-55555555-|
A|-55555555-55555555-9-9-9-9-9-9-9-9--33333333-|
E|-33333333------------------------------------|

e|-------------------------------------|
B|-------------------------------------|
G|----------77777777----------55555555-|
D|-55555555-77777777-22222222-55555555-|
A|-55555555-55555555-22222222-33333333-|
E|-33333333----------00000000----------|

e|---------------------------------------------|
B|---------------------------------------------|
G|----------77777777-1111111111111111-55555555-|
D|-55555555-77777777-1111111111111111-55555555-|
A|-55555555-55555555-9-9-9-9-9-9-9-9--33333333-|
E|-33333333------------------------------------|

Interlude:

e|----------------------------------------|
B|-13-13-12-12-10-10-12-12-13-13-12-12----|
G|------------------------------------9-9-|
D|----------------------------------------|
A|----------------------------------------|
E|----------------------------------------|

e|---------------------------------------------------------------|
B|-13-13-12-12-10-10-12-12-13-13-12-12-17-17-15h17-15h17---------|
G|------------------------------------------------------14h16-12-|
D|---------------------------------------------------------------|
A|---------------------------------------------------------------|
E|---------------------------------------------------------------|

e|-------------15(feedback)-------------|
B|-12(feedback)------------12(feedback)-|
G|--------------------------------------|
D|--------------------------------------|
A|--------------------------------------|
E|--------------------------------------|

e|-------------------|
B|-------------------|
G|----------77777777-|
D|-55555555-77777777-|
A|-55555555-55555555-|
E|-33333333----------|

Drum solo

e|--------------------------------|
B|--------------------------------|
G|-----------------------55555555-|
D|--------------22222222-55555555-|
A|-(pick scrape)22222222-33333333-|
E|-(pick scrape)00000000----------|

Chorus: Or G Major scale (GABCDEF#G)

e|-------------------------------------|
B|-------------------------------------|
G|----------77777777----------55555555-|
D|-55555555-77777777-22222222-55555555-|
A|-55555555-55555555-22222222-33333333-|
E|-33333333----------00000000----------|

e|---------------------------------------------|
B|---------------------------------------------|
G|----------77777777-1111111111111111-55555555-|
D|-55555555-77777777-1111111111111111-55555555-|
A|-55555555-55555555-9-9-9-9-9-9-9-9--33333333-|
E|-33333333------------------------------------|

e|-------------------------------------|
B|-------------------------------------|
G|----------77777777----------55555555-|
D|-55555555-77777777-22222222-55555555-|
A|-55555555-55555555-22222222-33333333-|
E|-33333333----------00000000----------|

e|---------------------------------------------|
B|---------------------------------------------|
G|----------77777777-1111111111111111-55555555-|
D|-55555555-77777777-1111111111111111-55555555-|
A|-55555555-55555555-9-9-9-9-9-9-9-9--33333333-|
E|-33333333------------------------------------|

Ending:

e|-------------------------------------------|
B|-13-13-12-12-10-10-12-12-13-13-12-12-------|
G|------------------------------------9-9~---|
D|-------------------------------------------|
A|-------------------------------------------|
E|-------------------------------------------|

e|------------------------------------------|
B|-13-13-12-12-10-10-12-12-13-13-12-12------|
G|-------------------------------------9-9~-|
D|------------------------------------------|
A|------------------------------------------|
E|------------------------------------------|

Thats about it, please sent your comment/ corrections
God Bless
Brandon Canning

| /  slide up
| \  slide down
| h  hammer-on
| p  pull-off
| ~  vibrato
| +  harmonic
| x  Mute note
===========================================================================
Tap to rate this tab
 
# A B C D E F G H I J K L M N O P Q R S T U V W X Y Z