Song name
# A B C D E F G H I J K L M N O P Q R S T U V W X Y Z

Hillsongs - Take It All tab

Take it All
Hillsong United


E|------------------------------14----14----14-------------------------------| 
B|--14-14-14-12-12-12-11-11-11-----12----12----12----------------------------| 
G|---------------------------------------------------------------------------| 
D|---------------------------------------------------------------------------|
A|---------------------------------------------------------------------------| 
E|---------------------------------------------------------------------------| 

E|------------------------------12----12----12-------------------------------| 
B|--14-14-14-12-12-12-11-11-11-----12----12----12----------------------------|
G|---------------------------------------------------------------------------| 
D|---------------------------------------------------------------------------| 
A|---------------------------------------------------------------------------| 
E|---------------------------------------------------------------------------| 
Tap to rate this tab
# A B C D E F G H I J K L M N O P Q R S T U V W X Y Z