Song name
# A B C D E F G H I J K L M N O P Q R S T U V W X Y Z

Hillsongs - A Reprise tab

Hillsong United
Came to My Rescue - I Heart Revolution
A Reprise - United We Stand

This is what they play on the Reprise of the song and this is what they play on the I 
CD.

e|---------------------------------------------------------------------------|
B|-------------------8-------------------------------------------------------|
G|--9~----------9---------10----9~-------------------------------------------|
D|-----------10---10---10----10----------------------------------------------|
A|---------------------------------------------------------------------------|
E|---------------------------------------------------------------------------|

e|---------------------------------------------7-8-----8----8----8----8------|
B|-------------------8-------------------------------------------------------|
G|--------------9---------10----9~--------9---------10---10---10---10--------|
D|-----------10---10---10----10--------10---10-------------------------------|
A|---------------------------------------------------------------------------|
E|---------------------------------------------------------------------------|

repeat this through out. also to build hillsong adds more to it such as:
e|---------------------------------------------------------------------------|
B|---------------------------8-----------------------------------------------|
G|--9~---------9--------9---------10----9~-----------------------------------|
D|----------10--10---10---10----10---10--------------------------------------|
A|---------------------------------------------------------------------------|
E|---------------------------------------------------------------------------|

e|---------------------------------------------------------------------------|
B|-----------------------8---------------------------------------------------|
G|------9-----------9---------10----9~---------------------------------------|
D|---10---10-----10---10---10----10------------------------------------------|
A|---------------------------------------------------------------------------|
E|---------------------------------------------------------------------------|

e|--------------------7-8----8------8------8------8--------------------------|
B|---------------------------------------------------------------------------|
G|-----9--------9----------10-10--10-10--10-10--10-10------------------------|
D|--10---10--10---10---------------------------------------------------------|
A|---------------------------------------------------------------------------|
E|---------------------------------------------------------------------------|

And so on... you can play around with it. this is the general idea. if you want to play 
exactly like hillsong just listen and use this to help you!
Enjoy God Bless!
Tap to rate this tab
 
# A B C D E F G H I J K L M N O P Q R S T U V W X Y Z