Song name
# A B C D E F G H I J K L M N O P Q R S T U V W X Y Z

Hillsongs - Tear Down The Walls tab

Intro:
-------------------------------------------|
---1--8--5--8--3--5--3--1--8--3--5--1------|
-------------------------------------------|
-------------------------------------------|
-------------------------------------------|
-------------------------------------------|


Verse:
-------------------------------------------|
---------------------10-10-10-10-8-8-8-8-8-|
-------------------------------------------|
7-7-7-7-7-7-7-7----------------------------|
-------------------------------------------|
-------------------------------------------|

-------------------------------------------|
---------------------10-10-10-10-8-8-8-8-8-|
-------------------------------------------|
7-7-7-7-7-7-7-7----------------------------|
-------------------------------------------|
-------------------------------------------|

---------------------------------------------------|
---------------------------13-13-13-13-12-12-12-12-|
---------------------------------------------------|
10-10-10-10-10-10-10-10----------------------------|
---------------------------------------------------|
---------------------------------------------------|

---------------------------------------------------|
---------------------------13-13-13-13-12-12-12-12-|
---------------------------------------------------|
10-10-10-10-10-10-10-10----------------------------|
---------------------------------------------------|
---------------------------------------------------|


Verse 2 has 2 guitar parts, similar to the ones in the intro/first verse.
---------------------------------------------------|
--------------------------8-8-8-8-(x7)-6-6-6-6-----|
5-5-5-5-(x7)-4-4-4-4-------------------------------|
---------------------------------------------------|
---------------------------------------------------|
---------------------------------------------------|

---------------------------------------------------|
5-5-5-5-(x7)-3-3-3-3-8-8-8-8-(x8 just the 8)-------|
---------------------------------------------------|
---------------------------------------------------|
---------------------------------------------------|
---------------------------------------------------|
Tap to rate this tab
# A B C D E F G H I J K L M N O P Q R S T U V W X Y Z