Song name
# A B C D E F G H I J K L M N O P Q R S T U V W X Y Z

Hillsongs - Arms Open Wide tab

Verse:
--------------------------------17-|
-----17-------15---17---14-15------|
--14--------------------------14---|
-----------------------------------| x2
-----------------------------------|
-----------------------------------|

Power Chords:
“Ooo”... = (G D A E G D A)

“My whole”: (D A B G A G A) x 2 D


Other Verse:
----------------17----|
---15---14---12-------|
----------------------|
----------------------|
----------------------|
----------------------|

---------------------------------|
---------15---14---12*-----------|
-----------------------11--------|
---------------------------------|
---------------------------------|
---------------------------------|
*Can play 10, it’s difficulty listen this part.
Tap to rate this tab
 
# A B C D E F G H I J K L M N O P Q R S T U V W X Y Z