Song name
# A B C D E F G H I J K L M N O P Q R S T U V W X Y Z

Hillsongs - Sing To The Lord tab

E(------7---9------5----7---12---12/14--12------)
B(--10---------9--------------------------------)
G(----------------------------------------------)
D(----------------------------------------------)
A(----------------------------------------------)
E(----------------------------------------------)

E(------7---9------5----7---12---12/14----12----)
B(--10---------9--------------------------------)
G(----------------------------------------------)
D(----------------------------------------------)
A(----------------------------------------------)
E(----------------------------------------------)
its quite simple...goodluck to all the muso's..keep praising God like you do, be 
humbled as you play!!
Tap to rate this tab
 
# A B C D E F G H I J K L M N O P Q R S T U V W X Y Z