Song name
# A B C D E F G H I J K L M N O P Q R S T U V W X Y Z

Hillsongs - For Your Name tab

For your name

Intro/Verse
---------------------------------------|
---------------------------------------|
-11-11-11----------9-9-9---------------|
----------11-11-11-------9-9-9-9-9-9-9-|
---------------------------------------|
---------------------------------------|
Play throughout, except for the third line for the verse, which goes:
---------------------------------------|
-10-10-10-9-9-9------------------------|
----------------11-11-11-9-9-9-9-9-9-9-|
---------------------------------------|
---------------------------------------|
---------------------------------------|

Chorus
----------------|
-7--14--14--9---|
-7--14--14--9---|
-7--14--14--9---|
-5--12------7---|
--------14------|
Tap to rate this tab
 
# A B C D E F G H I J K L M N O P Q R S T U V W X Y Z