Song name
# A B C D E F G H I J K L M N O P Q R S T U V W X Y Z

Hillsongs - One Way tab

Intro/Verse (listen to song for strumming)
e----------------------------------------------------------------------------|
B----------------------------------------------------------------------------|
G--8--13--11--9--------------------------------------------------------------|
D----------------------------------------------------------------------------|
A--6--11---9--7--------------------------------------------------------------|
E----------------------------------------------------------------------------|

Chorus (once again, listen to song for strumming)
e-------------------|
B-------------------|
G--8--11--13--9-----|
D-------------------|
A--6---9--11--7-----|
E-------------------|

Pre-Verse
e---------------------     -----------------------|
B---------------------     -----------------------|
G------------8h9p8----     ---------8-8h9p8-8h9p8-|
D-8b9r8b9r8----------- (x2)-8-9-9-9--8------------|
A---------------------     -----------------------|
E---------------------     -----------------------|


Bridge
e----------------------------------------------------------------------------|
B----------------------------------------------------------------------------|
G----------------------------------------------------------------------------|
D----------------------------------------------------------------------------|
A--6--6-6-6-6-6----9--9--9--9--9-9---11--11--11--11--11--11---7-7-7-7-7-7----|
E----------------------------------------------------------------------------|


e---------------------------------------------[------------------------------|
B---------------------------------------------[------------------------------|
G---------------------------------------------[8-8-8-8-8-8---11-11-11-11-11--|
D---------------------------------------------[------------------------------|
A--6-6--6-6-6---9-9-9-9-9--11-11-11---11-11---[6-6-6-6-6-6---9--9--9--9--9---|
E---------------------------------------------[------------------------------|


e----------------------------------------------------------------------------|
B----------------------------------------------------------------------------|
G--13--13--13--13--13-----9-9-9-9-9-9----8--8--8--8--8--8--11-11-11-11-11-11-|
D----------------------------------------------------------------------------|
A--11--11--11--11--11-----7-7-7-7-7-7----6--6--6--6--6--6--9--9--9--9--9--9--|
E----------------------------------------------------------------------------|


e-----------------------]
B-----------------------]
G--13--13--13--13--13---]
D-----------------------]x2
A--11--11--11--11--11---]
E-----------------------]
Tap to rate this tab
 
# A B C D E F G H I J K L M N O P Q R S T U V W X Y Z