Song name
# A B C D E F G H I J K L M N O P Q R S T U V W X Y Z

Hillsongs - The Wonder Of Your Love tab

The Wonder Of Your Love
by Hillsong
tabbed by Ferdinand Bato
tuning: standard 
email/facebook: tobatsdrive@yahoo.com

June 7, 2010 Wednesday midweek service 


Intro:
e|------------------------12--11-----|
A|--9----9----9----9--10-------------|
G|----11---11---11-------------------|
D|-----------------------------------|
A|-----------------------------------|
E|-----------------------------------|

e|----------------------------12--11-----|
A|--9----9----9----9--10-----------------|
G|----11---11---11-----------------------|
D|-----------------------9h11------------|
A|---------------------------------------|
E|---------------------------------------|

e|---------------------------12-----11------9---|
A|--9----9----9----9--10------------------------|
G|----11---11---11------------------------------|
D|-----------------------9h11---9h11---9h11-----|
A|----------------------------------------------|
E|----------------------------------------------|

e|-----9----------------------|
A|--------12------12---12-----|
G|--9----------9--------------|
D|----------------------------|
A|----------------------------|
E|----------------------------|

enjoy!!! ^^,
Tap to rate this tab
 
# A B C D E F G H I J K L M N O P Q R S T U V W X Y Z