Hillsongs - Our God Is Love tab

Chorus
F# C# D# B

Followed by
---9----9-------|
-7---7-----7----|
----------------|
----------------|
----------------|
----------------|
----------------|

Loooooveeeee loveeeeeeee part:

1st guitar, with delay and palm mutes
------------------------|
--7-7-7-6-7-7-6-7-------|
------------------------|
------------------------|
------------------------|
------------------------|
------------------------|

2nd guitar, with delay
-----9------9--9-9-----9--|
-6h7----6h7--------6h7----|
--------------------------|
--------------------------|
--------------------------|
--------------------------|
--------------------------|

Bridge
----14----14----14------14----14----14--|
-12----12----12------11----11----11-----|
----------------------------------------|
----------------------------------------|
----------------------------------------|
----------------------------------------|
----------------------------------------|

----13-----13-----13-------11-----9---------|
------------------------------------11------|
-13-----13-----13-------11-----11------11---|
--------------------------------------------|
--------------------------------------------|
--------------------------------------------|
--------------------------------------------|

Credit to guitarpraise.blogspot.com
Tap to rate this tab
 
# A B C D E F G H I J K L M N O P Q R S T U V W X Y Z