Song name
# A B C D E F G H I J K L M N O P Q R S T U V W X Y Z

Hillsongs - Love Like Fire tab

Intro+Verse (Intro+Verso)

-----------------------------7----|
-----9-----7-----9-----7--9-------|
--9-----9-----9-----9-------------|  x24
----------------------------------|
----------------------------------|
----------------------------------|


Chorus(Chorus) [Your Love Is Like Fire.....
---------------------------------------|
---------------------------------------|
--1s--6-----------1s--6--4-------------|  x2
---------6--4--2------------6--4--1----|
---------------------------------------|
---------------------------------------|

This Part Is [So Let Your Fire Consume My Life.....

--------------------------------|
--5(x4)--4(x4)--1(x2)--5(x2)----|
--4------4------2------4--------|
--------------------------------|
--------------------------------|
--------------------------------|


Bridge(Puente)

----------------------------------------------------------------|
----------------------------------------------------------------|
--9--8--4s--11--13-------8--6--4s--8--9--6--4--6--8--9----------|
-------------------(x2)-----------------------------------------|
--7--6--2s--9---11-------6--4--2s--6--7--4--2--4--6--7----------|
----------------------------------------------------------------|
Tap to rate this tab
 
# A B C D E F G H I J K L M N O P Q R S T U V W X Y Z