Song name
# A B C D E F G H I J K L M N O P Q R S T U V W X Y Z

Hillsongs - I Will Exalt You tab

Artist: Hillsong Live
Album: Faith + Hope + Love
Song: I Will Exalt You
Tuning: Standard

Tabbed by: Frenchboy



Intro and verses:

e|---------------------------------------------------------------------------|
B|--------7--9--------------7--9-------------7--9----------------------------|
G|--6--8-------------6--8-------------6--8-----------6/8-6-6-4---------------|
D|---------------------6-----------------------------------------------------|
A|---------------------------------------------------------------------------|
E|---------------------------------------------------------------------------|


Instrumental:

e|---------------------------------------------------------------------------|
B|---7--7--------------------------------------------------------------------|
G|----------8---6h8p6---------(x3)----------6/8-6-6-4------------------------|
D|---------------------6-----------------------------------------------------|
A|---------------------------------------------------------------------------|
E|---------------------------------------------------------------------------|





************************************

| /   slide up
| \   slide down
| h   hammer-on
| p   pull-off
| ~   vibrato
| +   harmonic
| x   Mute note
| b   Bend
| pb  Pre-bend
| br  Bend release
| pbr Pre-bend release
| brb Bend release bend

************************************
Tap to rate this tab
 
# A B C D E F G H I J K L M N O P Q R S T U V W X Y Z