Hillsongs - You Are God Alone tab

Hey guys! I was introduced to this song today, actually, and I came here to UG.com to
find the tab for the solo. Unfortunately, no one had tabbed it yet, so i took a shot at
it. I divided it so strangely simply because I wanted you to be able to look at the tab 
and play fluidly without breaking up the solo and possibly making you play it choppily. This
is a pretty standard solo and you can play it how Hillsong does or you can add your own 
style to it to accompany another song. Have fun with it! -Jon4Auburn

(P.S.- on the second group, the number of 12's and 15's strummed at the last part may be
slightly off; I tried my best, however, to get you an exact number that sounds right.
Just play it how you feel is best though!)


e|------------------------------|
B|-15-15-15-13-13-13-----13-15--|
G|-------------------12---------|
D|------------------------------|
A|------------------------------|
E|------------------------------|

e|--------------------13-13-13-12-12-12-12-12-12-12-12------------------------|
B|-15-15-13-13-13-15----------------------------------15-15-15-15-15-15-15-15-|
G|----------------------------------------------------------------------------|
D|----------------------------------------------------------------------------|
A|----------------------------------------------------------------------------|
E|----------------------------------------------------------------------------|
Tap to rate this tab
 
# A B C D E F G H I J K L M N O P Q R S T U V W X Y Z