Song name
# A B C D E F G H I J K L M N O P Q R S T U V W X Y Z

Hillsongs - For Who You Are chords

Highlighted       Show chord diagrams
FOR WHO YOU ARE
Hillsong: Mighty to Save


Intro: B-BE-E (2x)

e-----7----------7---------|
B--------------------------|
G--8---8---8/9---9---------|

B
  Standing here in Your presence
E
 Thinking of the good things You have done
B
 Waiting here patiently
E
 Just to hear Your still, small voice again

Refrain:
G#m     F#
  Holy,     righteous
E            F#
  Faithful to the end
G#m        F#
  Savior,    healer
E---
  Redeemer and friend

Chorus:
                       B
I will worship You for who You are
                     G#m
I will worship You for who You are
                       F#
I will worship You for who You are
         E---
Jesus

Bridge:
        B
My soul secure
               G#m
Your promise sure
              F#
You love endure
        E
Always

Instrumental:
e-------------------------------------------------------------------------------|
B-------------------------------------------------------------------------------|
G9p8-888p6-66--------6/8/9s11-8888s6-66-8---------------------------------------|
D-------------------999--------------------------------9-99----9-8-9------------|
A---------------------------------------------------------------------------9---|


e------------------11--------14---12-----------------------|
B---------12-14-----12-------12---11-12--------------------|
G11s13--------------------------------------11-9-8---------|
D----------------------------------------------------------|
Tap to rate this tab
# A B C D E F G H I J K L M N O P Q R S T U V W X Y Z