Song name
# A B C D E F G H I J K L M N O P Q R S T U V W X Y Z

Hillsongs - Mighty To Save tab

If you are looking for away you can play the lead guitar in your church or where ever 
for this song here is a good way to do it. it isn't exactly like the song but it sounds 
great with you and your band this is how our church band plays the leads.

Tabbed by Brandon Bushnell
Tuning (EADGBE)

Note) We play the whole song with a delay pedal so the intro can be cut down i just 
tabbed in like that so ppl without a delay pedal could play it the way it sounds.


  Intro
E|----------7----7-----7------7------|
B|-----------------------------------|
G|------7-----7-----7-----7------7---|
D|--10-------------------------------|
A|-----------------------------------|
e|-----------------------------------|


E|--------7-----7----7------7------|
B|---------------------------------|
G|-----7----7-----7-----7------7---|
D|--9------------------------------|
A|---------------------------------|
e|---------------------------------|


E|-------------------------------------|
B|---------8------8-----10-----10------|
G|-----7------7------7------7------7---|
D|--9----------------------------------|
A|-------------------------------------|
e|-------------------------------------|


End of intro play all 4X
E|---------------------------------|
B|--------0-----0-----8-----8------|
G|-----7-----7-----7-----7-----7---|
D|--7------------------------------|
A|---------------------------------|
e|---------------------------------|


E|----------------------------|
B|--------------------5----7--|
G|------5------7--------------|
D|-----------------5-----7----|
A|--7-----/9------------------|
e|----------------------------|

These chords follow the rhythem of the song.
E|--------------------------|
B|--8---7---8---8----8---7--|
G|--7---7---5---7----7---7--|
D|--5---5---5---5----5---5--|2X
A|--------------------------|
e|--------------------------|


E|-----------------------------------|
B|--13-----13------12-------15-------|
G|-----12------12------12-------12---|
D|-----------------------------------|
A|-----------------------------------|
e|-----------------------------------|

 This piece and the one on top of it is all one piece its played 4X
E|---------------------------------------------------------------|
B|---------------------------------------------------------------|
G|--12v--11-11-11v-11-11-/9-9-9v-/11-11-11-11v-11v-11v-12-12-12v-|
D|---------------------------------------------------------------|
A|---------------------------------------------------------------|
e|---------------------------------------------------------------|


E|-----------------------------|
B|--------8------8-----8---7---|
G|-----7-------------------7---|
D|--0--------0------0------7---|
A|-----------------------------|
e|-----------------------------|


These chords follow the same rhythem as the last
E|--------------------------|
B|--8---7---8---8----8---7--|
G|--7---7---5---7----7---7--|
D|--5---5---5---5----5---5--|2X
A|--------------------------|
e|--------------------------|


well thats it hope this helps some of you guys have fun.
Tap to rate this tab
# A B C D E F G H I J K L M N O P Q R S T U V W X Y Z