Song name
# A B C D E F G H I J K L M N O P Q R S T U V W X Y Z

Hillsongs - Unending Love tab

Here are the leads for this song
Tabbed by Brandon Bushnell
Tuning (EADGBE)


   Intro
E|--7---2---0---0---|
B|--7---3---3---2---|
G|--7---2---2---2---|
D|--0---0---0---x---|
A|--X---X---x---2---|
E|--7---3---3-------|


  Verse
E|--9---10---7----4TH TIME ADD----5---|
B|--X---X----X--------------------X---|
G|--6---7----4--------------------2---|
D|------------------------------------|
A|------------------------------------|
E|------------------------------------|


  Chorus
E|--12--14--------------------------------------------------------10--12---|
B|-------------------------------------------------------------------------|
G|--------11-----11-----11-----11----11/12-----12------12-----12-----------|
D|------------0------0------0-----0---------0------0-------0------0--------|
A|-------------------------------------------------------------------------|
E|-------------------------------------------------------------------------|


Follow rhythem of song
E|------------5---7------|
B|---15---8---8---7---8--|
G|---14---7---7---6---7--|
D|---12---5---0---0---5--|
A|----------------x------|
E|----------------7------|



E|---7---2---0---0---|
B|---7---3---3---2---|
G|---7---2---2---2---|
D|---0---0---0---x---|
A|---X---X---x---2---|
E|---7---3---3-------|
Tap to rate this tab
# A B C D E F G H I J K L M N O P Q R S T U V W X Y Z