Song name
# A B C D E F G H I J K L M N O P Q R S T U V W X Y Z

Hillsongs - You Never Fail tab

Here's the lead guitar part for You Never Fail from the 2013 album Glorious Ruins

Key of A
Tempo 74 bpm


Intro / Verses

    D                               F#m
e||------------------------------------------------------------------------|
b||------------------------------------------------------------------------|
G||------------------------------------------------------------------------|
D||----4----4--4----4--4----4--4--------11----11--11----11--11----14---11--|
A||--5---5-------5-------5-------5-/-12----12-------12--------12-----------|
E||------------------------------------------------------------------------|


    D                                A                E
e||-------------------------------------------------------------------||   repeat for intro
b||------------------------------------------------------------------O||   and all verses
G||-------------------------------------------------------------------||
D||----4----4--4----4--4----4--4--------11----12--11------6----7--6---||
A||--5---5-------5-------5-------5-/-12----12----------7----7--------O||
E||-------------------------------------------------------------------||


Pre Chorus

    Bm11  F#m7 E                   Bm11  F#m7  E
e||--------------------------------------------4--||
b||----5----5----0---------0-----------5----5-----||
G||-7-----6----1----1-/-2-----1----7-----6--------||
D||-----------------------------------------------||
A||-----------------------------------------------||
E||-----------------------------------------------||


Chorus  (first chorus don't play anything)
   [....let chords ring..............
    D    A    E    A/C# D    A    E
e||----------------------------------|
b||-3----2----0---------3----2----0--|
G||-2----2----1----2----2----2----1--|
D||-0----2----2----2----0----2----2--|
A||------0----2----4---------0----2--|
E||-----------0-------------------0--|

    ....................]
    A/C# D    E    F#m  A/C#     D        E
e||----------------------------------------------------------------||
b||------3----0------------------3-3-3-3---------------------------||
G||-2----2----1----2----2-2-2-2--2-2-2-2--13-13-13-13-13-13-13-13--||
D||-2----0----2----4----2-2-2-2--0-0-0-0--14-14-14-14-14-14-14-14--||
A||-4---------2----4----4-4-4-4------------------------------------||
E||-----------0----------------------------------------------------||


Instrumental / Bridge

    D
e||-----------------14--------------------------|
b||-------------17------14--14--------------14--|
G||-----14----------------------16--14--16------|
D||-16------16----------------------------------|
A||---------------------------------------------|
E||---------------------------------------------|

    A
e||-------------14--------------------------|
b||---------17------14--14--------------14--|
G||-------------------------16--14--16------|
D||-16--------------------------------------|
A||-----------------------------------------|
E||-----------------------------------------|


    F#m
e||-------------14--------------------------|
b||---------17------14--14--------------14--|
G||-------------------------16--14--16------|
D||-16--------------------------------------|
A||-----------------------------------------|
E||-----------------------------------------|


    E                                                 resolve on this
e||-----14------------9------------------------------||      ----||
b||-17------17----12-----12--------------------------||      ----||
G||----------------------------13--14--13----14--13--||      -11-||
D||--------------------------------------------------||      ----||
A||--------------------------------------------------||      ----||
E||--------------------------------------------------||      ----||



Intro:
| D    | F#m  | D    | A  E/B |


Verse 1:

D                       F#m
When waters rise all around me
D                           A      E
When mountains stand in the path I see
D                        F#m
I look to love that's unfailing
D                       A     E
I look to grace that is all I need


Pre Chorus:

   Bm11  F#m           E
Oh call, call upon the Name
      Bm11       F#m            E
Jesus Christ the only Name that saves


Chorus:

    D        A               E
For there is no one like our God
        A/C#           D
There's no one like our God
        A                E
There's nothing that can stand against You
A/C#       D                    E
There's no stronghold You can't break
   F#m                 A/C#
No life that You cant save
    D          E
Our God You never fail


Verse 2:

Your light will shine through the darkness
Your word will calm every crashing wave
My hope it lies in Your promise
My faith it stands on the empty grave


Instrumental:
| D   | A   | F#m  | E   |


Bridge:

D
Strong through every trial
A
Faithful through the night
F#m
Our God will never fail
E
Our God will never fail
D
Anchor through the flood
A
You keep holding on
F#m
I know You'll never fail
E
Jesus You'll never fail
Tap to rate this tab
# A B C D E F G H I J K L M N O P Q R S T U V W X Y Z