Song name
# A B C D E F G H I J K L M N O P Q R S T U V W X Y Z

Hillsongs - Endless Light tab

Here's both guitar parts for Hillsong's Endless Light from the album Cornerstone

Tempo: 113bpm
Key: C


GUITAR 1: This has a little bit of a 'Hendrix' feel to how it's played (hope that helps)

Intro / Hook:


e||--------------------------||       X4
b||----8----8-----8--6--5---O||
G||----5----5-----5--5--5----||
D||-5-----5----5-------------||
A||-------------------------O||
E||--------------------------||


Verses:


e||-----------------------------------------------|
b||----8----8-----8--8--8------8-----8--5--8--10--|
G||----5----5-----5--5--5------5-----5--5--5--10--|
D||-5-----5----5------------5-----5---------------|
A||-----------------------------------------------|
E||-----------------------------------------------|



e||--------------------------------------------------------------------|
b||-----10------10------10--10--10------10------10--10-----------12----|
G||-----10------10------10--10--10------10------10--10------------12---|
D||-10------10------10--------------10------10----------10-/-12----12--|
A||--------------------------------------------------------------------|
E||--------------------------------------------------------------------|


e||------------------------------------------------------|
b||----------13--13--13--13-------------8---8---6--6--6--|
G||----------12--12--12--12-------------10--10--5--5--5--|
D||-12(h)14--------------------14-\-10-------------------|
A||------------------------------------------------------|
E||------------------------------------------------------|


e||------------------------------------------------||
b||----8----8-----8--6--5------8----8-----8--6--5--||
G||----5----5-----5--5--5------5----5-----5--5--5--||
D||-5-----5----5------------5-----5----5-----------||
A||------------------------------------------------||
E||------------------------------------------------||


Chorus 1:


e||-------------------------------1----------------------||
b||-8-------8-------3------6------1------5------3--------||
G||-10------9-------4------5-------------5------4--5--4--||
D||-10------10------5------7------3------5------5--------||
A||------------------------------------------------------||
E||------------------------------------------------------||


Chorus 2:


e||-------------------------------------------------|
b||-8(h)10--10--8--10--8--10------------------------|
G||-9-------9---9--9---9--9---9-----9---9(h)10--9---|
D||---------------------------10----10--10------10--|
A||-------------------------------------------------|
E||-------------------------------------------------|


e||-8(h)10--10--10--8--10--8--------------------------------------|
b||-8-------8---8---8--8---8--------------------------------------|
G||---------------------------9(h)10--10--10--9---10--9-----------|
D||---------------------------10------10--10--10--10-----/12--10--|
A||---------------------------------------------------------------|
E||---------------------------------------------------------------|


e||-------------------------------------------------|
b||-8(h)10--10--8--10--8--10------------------------|
G||-9-------9---9--9---9--9---9-----9---9(h)10--9---|
D||---------------------------10----10--10------10--|
A||-------------------------------------------------|
E||-------------------------------------------------|


   [******************** FIRST TIME ************************]
e||-8(h)10--10--10--8--10--8----8(h)10--10--10--8------8-------|
b||-8-------8---8---8--8---8----8-------8---8---8--10--8---O---|
G||------------------------------------------------------------|
D||------------------------------------------------------------|
A||--------------------------------------------------------O---|
E||------------------------------------------------------------|


    [******************* SECOND TIME (INTO BRIDGE)****************************]
e||-8(h)10--10--10--8----8(h)10--10--10--8----8(h)10--10--10--8--10--8---12\--||
b||-8-------8---8---8----8-------8---8---8----8-------8---8---8--8---8--------||
G||----------------------------------------------------------------------12\--||
D||---------------------------------------------------------------------------||
A||---------------------------------------------------------------------------||
E||---------------------------------------------------------------------------||



Bridge: First time through Guitar 1 doesn't play anything. Then:


e||------------------------------------------------8---------------8----|
b||-8-----8-----5----3--3--3----8----5---3---------8------------8-------|
G||-10----10----5----4--5--4----10---5---4-------9------9(h)10----------|
D||-10----10----7----5--5--5----10---7---5---/10------------------------|
A||---------------------------------------------------------------------|
E||---------------------------------------------------------------------|



e||--------8----------------|
b||--------8--8---8---8-----|
G||-----9-----9---10--9-----|
D||-10--------10--10--10----|
A||-------------------------|
E||-------------------------|



e||---------12---------------10---------------12---------------10------|
b||-----13------13-------13------13-------13------13-------13------13--|
G||-14---------------14---------------14---------------14--------------|
D||--------------------------------------------------------------------|
A||--------------------------------------------------------------------|
E||--------------------------------------------------------------------|


e||---------12---------------10---------------10--------------8------|
b||-----13------13-------13------13-------12------12------12-----12--|
G||-14---------------14---------------12--------------12-------------|
D||------------------------------------------------------------------|
A||------------------------------------------------------------------|
E||------------------------------------------------------------------|


e||----------12---------------10---------------12---------------10------|
b||------13------13-------13------13-------13------13-------12------12--|
G||-/14---------------14---------------14---------------12--------------|
D||---------------------------------------------------------------------|
A||---------------------------------------------------------------------|
E||---------------------------------------------------------------------|


e||---------8---------------8--------8----------------||
b||---------8------------8-----------8--8---8---8-----||
G||-------9------9(h)10-----------9-----9---10--9-----||
D||-/10---------10------------10--------10--10--10----||
A||---------------------------------------------------||
E||---------------------------------------------------||


Final Bridge / Outro


e||---------12---------------10---------------12---------------10------|
b||-----13------13-------13------13-------13------13-------13------13--|
G||-14---------------14---------------14---------------14--------------|
D||--------------------------------------------------------------------|
A||--------------------------------------------------------------------|
E||--------------------------------------------------------------------|


e||---------12---------------10---------------10--------------8------|
b||-----13------13-------13------13-------12------12------12-----12--|
G||-14---------------14---------------12--------------12-------------|
D||------------------------------------------------------------------|
A||------------------------------------------------------------------|
E||------------------------------------------------------------------|


e||----------12---------------10---------------12-------10--|
b||------13------13-------13------13-------13------13---12--|
G||-/14---------------14---------------14---------------12--|
D||---------------------------------------------------------|
A||---------------------------------------------------------|
E||---------------------------------------------------------|


e||----------------------------------------||
b||-8--8--8--6--5----8--8--8--6--5----8----||
G||-5--5--5--5--5----5--5--5--5--5----5----||
D||-5--5--5--5--5----5--5--5--5--5----5----||
A||----------------------------------------||
E||----------------------------------------||




GUITAR 2:

Intro / Hook


e||-----------------------------||       X4
b||-----13-----13--13----------O||
G||-/9------9----------10--12---||
D||-----------------------------||
A||----------------------------O||
E||-----------------------------||


Verses: Guitar 2 doesn't play


Choruses:

                                                         when repeating add:     into Bridge:
e||-------------------------------------------------||      --------||             ----||
b||-------------------------------------------------||      -------O||             ----||
G||-----12-----9-----4------10------12-----9-----4--||      ----4---||             -/5-||
D||-------------------------------------------------||      --------||             ----||
A||-------------------------------------------------||      -------O||             ----||
E||-13------8-----3-----10------13------8-----3-----||      -3------||             ----||


Bridge:


e||--------------------------------------------------------------------|
b||--------------------------------------------------------------------|
G||---------7----------9----------7----------9----------7----------9---|
D||-7(h)10-----7(h)10-----7(h)10-----7(h)10-----7(h)10-----7(h)10------|
A||--------------------------------------------------------------------|
E||--------------------------------------------------------------------|


e||--------------------------|
b||----------------8---------|
G||---------7---------9------|
D||-7(h)10-----10--------10--|
A||--------------------------|
E||--------------------------|


e||---------------------------------------------------------------------------------||
b||-----------------------------------------------8----------------8---------------O||
G||---------7----------9----------7----------9-------9------7(h)9-----9------7-/-9--||
D||-7(h)10-----7(h)10-----7(h)10-----7(h)10-------------10---------------10---------||
A||--------------------------------------------------------------------------------O||
E||---------------------------------------------------------------------------------||
Tap to rate this tab
# A B C D E F G H I J K L M N O P Q R S T U V W X Y Z