Song name
# A B C D E F G H I J K L M N O P Q R S T U V W X Y Z

Hillsongs - Grace Abounds tab

Here's both guitar parts and chords for Grace Abounds from the album Cornerstone (2011).
Words and music by Ben Fielding / Dean Ussher

Enjoy!

Tempo 75bpm
Key - A


Guitar 1:

Intro/Verses:

     Dmaj7
e||----------------------------------------------------------------|
b||-----14------14------14------14------14------14------14------14-|
G||-11------11------11------11------11------11------11------11-----|
D||----------------------------------------------------------------|
A||----------------------------------------------------------------|
E||----------------------------------------------------------------|

     F#m
e||----------------------------------------------------------------|
b||-----12------12------12------12------12------12------12------12-|
G||-14------14------14------14------14------14------14------14-----|
D||----------------------------------------------------------------|
A||----------------------------------------------------------------|
E||----------------------------------------------------------------|

     A
e||----------------------------------------------------------------|
b||-----14------14------14------14------14------14------14------14-|
G||----------------------------------------------------------------|
D||-14------14------14------14------14------14------14------14-----|
A||----------------------------------------------------------------|
E||----------------------------------------------------------------|

     E
e||----------------------------------------------------------------||
b||-----12------12------12------12------12------12------12------12-||
G||-13------13------13------13------13------13------13------13-----||
D||----------------------------------------------------------------||
A||----------------------------------------------------------------||
E||----------------------------------------------------------------||


Choruses:

     Bm      F#m      E                    A       C#m7      D
e||------------------------------------------------------------------------------|
b||-------------------------------------------------------------------------5----|
G||----7--------6--------4--------4----------6--------4--------2--------2------2-|
D||-9--------7--------6--------6----------7--------6--------4--------4-----------|
A||------------------------------------------------------------------------------|
E||------------------------------------------------------------------------------|

    Bm      F#m       A        E        D               E
e||---------------------------------------------------------------------||
b||-----------------------------------------5-------5-------5-------5---||
G||----7--------6--------9--------4-------2---2---2---2---4---4---4---4-||
D||-9--------7--------11-------6--------4-------4-------6-------6-------||
A||---------------------------------------------------------------------||
E||---------------------------------------------------------------------||


Bridge:  the first time through Guitar 1 doesn't play anything; then joins in with:

    D                                E
e||-----------------------------------------------------------------|
b||-----------------------------------------------------------------|
G||-----------------------------------------------------------------|
D||-----------------------------------------------------------------|
A||-5-5-5-5-5-5-5-5-5-5-5-5-5-5-5-5-7-7-7-7-7-7-7-7-7-7-7-7-7-7-7-7-|
E||-----------------------------------------------------------------|

    F#m                             E/G#
e||---------------------------------------------------------------------------------|
b||---------------------------------------------------------------------------------|
G||---------------------------------------------------------------------------------|
D||---------------------------------------------------------------------------------|
A||-9-9-9-9-9-9-9-9-9-9-9-9-9-9-9-9-11-11-11-11-11-11-11-11-11-11-11-11-11-11-11-11-|
E||---------------------------------------------------------------------------------|


    D                                E
e||-----------------------------------------------------------------|
b||-----------------------------------------------------------------|
G||-7-7-7-7-7-7-7-7-7-7-7-7-7-7-7-7-9-9-9-9-9-9-9-9-9-9-9-9-9-9-9-9-|
D||-----------------------------------------------------------------|
A||-5-5-5-5-5-5-5-5-5-5-5-5-5-5-5-5-7-7-7-7-7-7-7-7-7-7-7-7-7-7-7-7-|
E||-----------------------------------------------------------------|

    F#m
e||-------------------------------------------------|
b||-------------------------------------------------|
G||-11-11-11-11-11-11-11-11-11-11-11-11-11-11-11-11-|
D||-------------------------------------------------|
A||-9--9--9--9--9--9--9--9--9--9--9--9--9--9--9--9--|
E||-------------------------------------------------|

    E/G#
e||-------------------------------------------------||
b||-------------------------------------------------||
G||-13-13-13-13-13-13-13-13-13-13-13-13-13-13-13-13-||
D||-------------------------------------------------||
A||-11-11-11-11-11-11-11-11-11-11-11-11-11-11-11-11-||
E||-------------------------------------------------||




Guitar 2:

Intro/Verses:  Guitar 2 doesn't play anything


Choruses:

    Bm          F#m        E         A          C#m7      D
e||-------------------------------------------------------------|
b||-------15--------10--------9------------14-------5---------7-|
G||----14---------9---------------------14--------6-------------|
D||-------------------------9-------------------------------7---|
A||-14----------9---------7----------12---------4---------5-----|
E||-------------------------------------------------------------|

    Bm          F#m       A           E         D         E
e||---------------------------------------------------------||
b||-------15--------10----------14--------9---------7-------||
G||----14---------9----------14-----------------------------||
D||-------------------------------------9---------7-------9-||
A||-14----------9---------12----------7---------5---------7-||
E||---------------------------------------------------------||


Bridge:   This repeats all through the bridge. Let the chords ring

    D        E        F#m      E/G#
e||-14-------16-------17-------16-------||
b||-15-------17-------19-------17-------||
G||-14-------16-------18-------16-------||
D||-------------------------------------||
A||-------------------------------------||
E||-------------------------------------||





Intro:

Dmaj7 / / / | F#m / / / | A / / / | E / / / |



Verse 1:

Dmaj7                    F#m                A              E
     You laid aside Your throne and to this world You have come

Dmaj7                   F#m                A                E
    You offered up Your life. The debt You paid, it was not Yours



Chorus:

     Bm     F#m       E
Your grace abounds to me

     A      F#m       E
Your grace abounds to me

Bm F#m     A          E          D       E
Je-sus, in You I find all that I need



Verse 2:

Dmaj7                  F#m             A            E
    A gift I could not earn, Your open arms, so undeserved

Dmaj7               F#m           A               E
    Enabled by Your grace, now to live is Christ alone



Bridge:

D             E
  All powerful, all glorious

F#m                         E/G#
   There's nothing like the Name of Jesus

D             E
  All powerful, all glorious

F#m                           E/G#
    There's nothing like Your Name
Tap to rate this tab
# A B C D E F G H I J K L M N O P Q R S T U V W X Y Z