Song name
# A B C D E F G H I J K L M N O P Q R S T U V W X Y Z

Hillsongs - Still tab

I'm not sure about the speed, but you can modify the speed by hearing the music 
and use your feeling
Still

Verse 1 & 2 :
E --0-------------3----------------------------------------------5------------|
B -------1------------------0----1-----------------------1-------------6------|
G -----0---0--------------0-----------2-----------0------------------5---5----|
D ----------------------0------------2----------0----------------3------------|
A --3-------------2--------------0--------------------------------------------|
E -------------------------------------------3--------------------------------|

E --------2---------------------------------------|
B --3--------1---3--------1--0--1--3--------------|
G -----2---------------0-------------0------------|
D --0---------------0-----------------------------|
A ------------------------------0--2--------------|
E ---------------3-----------3--------------------|

E --0-----------3---------------------------------------1------0--------------------------|
B -------1------------------0-1----------------------1-----------3-------1--3-------3-----|
G -----0---0-----------0------------2-----------0----------0----------2-----------0---0---|
D -------------------0------------2-----------0---------3-----------0---------------------|
A --3-----------2-------------0-----------------------------------------------------------|
E ------------------------------------------3----------------------------------3----------|

Chorus :
E --0-3-8-7--5-----5-5---------3-3---------------------|
B ----------------------------------------1------------|
G ---------------5----------0-----------0---0----------|
D -----------3-----------------------------------------|
A ------------------------------------3----------------|
E ------------------------3----------------------------|

E --0-3-8-7--5---5-7-----7-8---------------------------|
B -----------------------------------5-----------------|
G -------------5-------7-----------5---5---------------|
D -----------3-----------------------------------------|
A --3--------------------------0-----------------------|
E -------------------0---------------------------------|

E --0-3-8-7--5-----5-5--------3-3------0--------------0--1-3----------0--------------|
B -------------------------------------1---------3-------------1---------3-------1-1-|
G --------------5-----------0----------0---------0-----------------0-----------0-----|
D -----------3----------------------------------------------------3------------------|
A ----------------------------------3--------2--------0------------------------------|
E --3--------------------3---------------------------------------------------3-------|

E ------------0-------------------------------------------------------|
B -------1------------------------------------------------------------|
G -----0---0---------------Repeat to the verse------------------------|
D --------------------------------------------------------------------|
A --3-----------------------------------------------------------------|
E --------------------------------------------------------------------|
Tap to rate this tab
# A B C D E F G H I J K L M N O P Q R S T U V W X Y Z