Song name
# A B C D E F G H I J K L M N O P Q R S T U V W X Y Z

Hillsongs - Lover Of My Soul tab

Hillsongs(united live)
Jesus lover of my soul
tabbed by third
(intro)
 
listen to the song to get timming and how to strum the chord
     c         d         em                 c
E-------------------------------------------0--------|
a----3--------/5--------/7------------------0--------|
d----5--------/7--------/9-----------------/5--------|
g----0---------0---------0------------------0--------|
b----5--------/7--------/8-----------------/5--------|
e----0---------0---------0------------------0--------|

worship       you  my lord until the very end

E---------------------------------------------|
a---------------------------------------------|
d----5---------7---------9--------------------|
g---------------------------------------------|
b------3--5-------5--7-----7--8---------------|
e---------------------------------------------| 

VErse

g      d/f#         
Jesus ,lover ...........
em7         am7         c/d
Jesus,.......never.......go
g             d/f#         
Youve..........from..........clay
em7               am7         c/d
Youve..............rock.......know


g         d/f#
i love.....i need...
em        em/d         cmaj7       c/d
though.....world........never.......go
g          d/f#
my Saviour....my closet Friend...
em     em/d     cmaj7        c/d    g
i wil..worship....until.......end.....



repeat intro


enjoy and praise GOD forever
Tap to rate this tab
 
# A B C D E F G H I J K L M N O P Q R S T U V W X Y Z