Guitaretab - guitar tabs
Song name
# A B C D E F G H I J K L M N O P Q R S T U V W X Y Z

Hillsongs - Everyday Acoustic tab

Song Title:      Everyday
Artist:          Hillsongs Various Artist
Album:           Blessed
Tuning:          Standard (EADGBe)
Accuracy:        99.00 percent
Difficulty:      Intermediate
Transcribed by:  Paul Eliezer E. Alvarez

These are the chords to be used throughout this song:

     E      B5    G#m7   F#7    E5    
e  --0--  --2--  --4--  --2--  -----     
B  --0--  --2--  --4--  --2--  -----    
G  --1--  --4--  --4--  --3--  --9--      
D  --2--  --4--  --4--  --2--  --9--     
A  --2--  --2--  --6--  --4--  --7--     
E  --0--  --X--  --4--  --2--  --X--  
   
Intro: 

   E   B         G#m7 F#7
e|-0-0-X-X-----X-4-4-2-2-2--|
B|-0-0-4-4-----4-4-4-2-2-2--|
G|-1-1-4-4-----4-4-4-3-3-3--| repeat
D|-2-2-4-4-4h6-4-4-4-2-2-2--| twice
A|-2-2-X-X-----X-6-6-4-4-4--|
E|-0-0-X-X-----X-4-4-2-2-2--|

Verse I:
E           B          G#m7     F#7
What's to say  Lord it's   you gave me life
E            B       G#m7         F#7    
I can't explain just how much you mean to me now
E                 B      G#m7
That you would save me Lord
       F#7               E
I give that all I am to you
           B       G#m7
That everyday I would
       F#7                  E
Be a light and shine you're Name

Fill:

   E   B         G#m7 F#7
e|-0-0-X-X-----X-4-4-2-2-----2--|
B|-0-0-4-4-----4-4-4-2-2-----2--|
G|-1-1-4-4-----4-4-4-3-3-3h4-3--| repeat
D|-2-2-4-4-4h6-4-4-4-2-2-----2--| twice
A|-2-2-X-X-----X-6-6-4-4-----4--|
E|-0-0-X-X-----X-4-4-2-2-----2--|
[ Tab from: http://www.guitaretab.com/h/hillsongs/65702.html ]
Verse II :
E     B         G#m7         F#7               E
Everyday Lord I'll learn to stand upon you're Word
      B          G#m7       F#7              E
And I pray that I, I might come to know you more
               B           G#m7         F#7            
That you would guide me in every single step I take that
E     B     G#m7    F#7            B
Everyday I can be a light unto the world

Chorus:
B     E5       G#m7       F#7
Everyday, it's You I live for
B     E5       G#m7         F#7
Everyday, I'll follow after You
B     E5       G#m7      F#7    B     E5- G#m7-F#7
Everyday, I'll walk with you my Lord

Fill:

   E   B         G#m7 F#7
e|-0-0-X-X-----X-4-4-2-2-----2--|
B|-0-0-4-4-----4-4-4-2-2-----2--|
G|-1-1-4-4-----4-4-4-3-3-3h4-3--| repeat
D|-2-2-4-4-4h6-4-4-4-2-2-----2--| twice
A|-2-2-X-X-----X-6-6-4-4-----4--|
E|-0-0-X-X-----X-4-4-2-2-----2--|

Verse III :
E     B         G#m7         F#7               E
Everyday Lord I'll learn to stand upon you're Word
      B          G#m7       F#7              E
And I pray that I, I might come to know you more
               B           G#m7         F#7            
That you would guide me in every single step I take that
E     B     G#m7    F#7            B
Everyday I can be a light unto the world

Chorus:
B     E5       G#m7       F#7
Everyday, it's You I live for
B     E5       G#m7         F#7
Everyday, I'll follow after You
B     E5       G#m7      F#7    B     E5- G#m7-F#7
Everyday, I'll walk with you my Lord

B     E5       G#m7       F#7
Everyday, it's You I live for
B     E5       G#m7         F#7
Everyday, I'll follow after You
B     E5       G#m7      F#7    B     E5- G#m7-F#7
Everyday, I'll walk with you my Lord

Coda: (Palm muted chords)
B          E5       G#m7  F#7
It's You I live for everyday
B          E5       G#m7  F#7
It's You I live for everyday
B          E5       G#m7  F#7
It's You I live for everyday
B          E5       G#m7  F#7
It's You I live for everyday

*** Itís always nice to hear from a Christian musician. Just send your questions and
requests to schizophrenic29@yahoo.com or CP # 09202658112.
Related for Everyday Acoustic tab