Guitaretab - guitar tabs
Song name
# A B C D E F G H I J K L M N O P Q R S T U V W X Y Z

Hillsongs - You Are My World tab

*you are my world by hillsongs*
this song is really started with piano then the lead guitar for the intro.
  {chords:Em-C-G-D}intro tabs(2x)
e:|----------------------------7-----------------------|
B:|--8-7-8-7-8-7-5-7-8-7-8-7-8---10-8-8-------8-8-10-7-|
G:|----------------------------------------------------|
D:|----------------------------------------------------|
a:|----------------------------------------------------|
e:|----------------------------------------------------|
[ Tab from: http://www.guitaretab.com/h/hillsongs/67490.html ]
verse chords:Em-C-G-D {useintro tabs(2x)}
pre-chorus  :Am7-C-Dsus-D (2x)
I.
e:|----------------------------------------------------|
B:|--8--7--5-5--7-8--7---------------------------------|
G:|----------------------------------------------------|
D:|----------------------------------------------------|
a:|----------------------------------------------------|
e:|----------------------------------------------------|
II.
e:|----------------------------------------------------|
B:|--8--7--5-7-8-8--10---------------------------------|
G:|----------------------------------------------------|
D:|----------------------------------------------------|
a:|----------------------------------------------------|
e:|----------------------------------------------------|

I.chorus chords:G-D-C-D
              G-D-C-Cm
chorus tabs (2x)
e:|-------7-7--|-------7-----|-------7-8-7-------------|
B:|--8-10------|--8-10---10--|--8-10-------10-8-8------|
G:|----------------------------------------------------|
D:|----------------------------------------------------|
a:|----------------------------------------------------|
e:|----------------------------------------------------|

repeat all and change the last chord Cm to D on the last part of chorus.
do intro chords for instrumentals..do the chorus for 2x.

proceed to pre-chorus tabs and chords..
repeat chorus for 2x..

thats all folks...heheh!!add me at friendster for any comments.franzwyngabas@yahoo.com...c",)
Related for You Are My World tab
×
Best way to learn
"You Are My World"