Song name
# A B C D E F G H I J K L M N O P Q R S T U V W X Y Z

Hillsongs - An Introduction tab

Song:   An Introduction
Artist: Hillsong United
Album:  United We Stand


play 1/16 notes
e|-----7-9---7-9----------|
H|--10-----9-----7-10-9---|
G|----------------------9-|
D|------------------------|
A|------------------------|
E|------------------------|

e|-----7-9---7-9----------|
H|--10-----9-----7-10-9-9-|
G|----------------------9-|
D|------------------------|
A|------------------------|
E|------------------------|

play either 1/16 or 1/8, listen to the song for the exact timing..
e|-----------------------------------------------------9----9-----12--9------|
H|-7--7--7-7-9--7--7--7--7--9-10--9\3/--12-10-9-10-12-10-12---12--10-10-9-12-|
G|-7--9--6-7-9--7--9--6--7--9--9--9\3/---9--9-9--9--9----------9---9--9-9--9-|
D|---------------------------------------------------------------------------|
A|---------------------------------------------------------------------------|
E|---------------------------------------------------------------------------|

e|------------------|
H|-10-10\/-10-10-10-|
G|--9--9\/----------|
D|------------------|
A|------------------|
E|------------------|

That's approximately how I play it, it's not really accurate xP
Comments/ corrections welcome!
Tap to rate this tab
# A B C D E F G H I J K L M N O P Q R S T U V W X Y Z