Song name
# A B C D E F G H I J K L M N O P Q R S T U V W X Y Z

Hillsongs - Tell The World Remix tab

Tabs
Intro
An Introduction Riff (x2):
-------------------------------------------------|
-------------------------------------12-12-12-14-|
-14-14-14-14-14-14-14-14-14-14-14-14-------------|
-------------------------------------------------|
-------------------------------------------------|
-------------------------------------------------|
-------------------------------------------------|

Modified Tell the World Solo:
----------------------12-----------------------------|
-------10----10-12----12b14-b14-b14r12p10-12-10------|
-11-11----11-------10---------------------------11-9-|
-----------------------------------------------------|
-----------------------------------------------------|
-----------------------------------------------------|

----------------------------------------------|
-------10----10-12----------------------------|
-11-11----11-------11-------------------------|
-----------------------12--12-12-12-11s7-7-7--|
----------------------------------------------|
----------------------------------------------|

Verse
Take it All Riff (with some palm mutes & additional notes)
-14-14-14-14-12-12-12-12-------------|
-------------------------15-15-15-15-|
-------------------------------------|
-------------------------------------|
-------------------------------------|
-------------------------------------|

-17-17-------17-17-------|
-------14-14-------14-14-|
-------------------------|
-------------------------|
-------------------------|
-------------------------|

-14-14-14-14-12-12-12-12-------------|
-------------------------15-15-15-15-|
-------------------------------------|
-------------------------------------|
-------------------------------------|
-------------------------------------|

---------(7)-(7)----------(5)-(5)-------------|
-(7)-(7)-(7)-(7)--(5)-(5)-(5)-(5)-------------|
-(7)-(7)----------(5)-(5)---------------------|
----------------------------------------------|
----------------------------------------------|
----------------------------------------------|
The bracketed tabs means that you have to play them using harmonics.

-14-14-14-14-12-12-12-12-------------|
-------------------------15-15-15-15-|
-------------------------------------|
-------------------------------------|
-------------------------------------|
-------------------------------------|

-17-17-------17-17-------|
-------14-14-------14-14-|
-------------------------|
-------------------------|
-------------------------|
-------------------------|

-14-14-14-14-12-12-12-12-------------------------|
-------------------------15-15-15-15-14b15r14----|
----------------------------------------------14-|
-------------------------------------------------|
-------------------------------------------------|
-------------------------------------------------|

Tell the World Riff
----------------------------------------------------|
----------------------------------------------------|
-------14-14-11-11-11-11-11-11-11-11-11-11-11-11-11-|
-11-11----------------------------------------------|
----------------------------------------------------|
----------------------------------------------------|

----------------------------------------------------|
----------------------------12b14r12-10-12-10-------|
-------14-14-11-11-11-11-11-------------------11----|
-11-11----------------------------------------------|
----------------------------------------------------|
----------------------------------------------------|

-------------------------|
-------------------------|
-------14-14-11-11-11-11-| Bm D
-11-11-------------------|
-------------------------|
-------------------------|

Chorus
A E F#m D
A E F#m D

Instrumental 1
I used a 15/8 beat timing for this section. It can be quite hard to count, so I do it by 
3 and a half, followed by 4 beats in a bar. I separated the 3.5 and 4 count bars in the 
below.
-----------|--------------|
-----------|--------------|
-----------|--------------|
-4---4-4---|---7----------| (x2)
---7-----7-|-5---5-4-5-7--|
-----------|--------------|

--------------|----9------------|
-10p9-10-10-9-|--------------9--|
--------------|-11---11-9-11----| (x2)
--------------|-----------------|
--------------|-----------------|
--------------|-----------------|

Instrumental 2
Back to the normal 4/4 (four beat) timing. Phew! Get a crunchy metal sound for this 
Use some palm mutes, and it helps to imagine that its F#m power chords being played, with a 
bass line.
----------------------------------------------|
----------------------------------------------|
----------------------------------------------|
-4-4-4-4-4-4-4-4--4-4-4-4-4-4-4---------------|
-4-4-4-4-4-4-4-4--4-4-4-4-4-4-4---------------|
-2-0-2-0-2-2-0-2--2-0-2-2-3-2-0---------------|

-----------------------------------|
-----------------------------------|
-----------------------------------|
-4-4-4-4-4-4-4-4-------------------|
-4-4-4-4-4-4-4-4----9-----7--------|
-2-0-2-0-2-2-0-2s-7---7s5---5s4p0--|

While the above is being played, another guitar plays the "Take it All" riff played in 
verse. Also, The the World's verse riff (the first half) is played in the 2nd half of 
instrumental.

Bridge
Begin with the introduction to Mighty to Save.

One Way's pre-verse riff enters after 4 bars:
-------------------|
-------------------|
-----------6b7r6b--| (x4)
-6b7r6b7r6---------|
-------------------|
-------------------|

The next part is based on From God Above's verse:
-----------------------------|
-----------------------------|
-----------------------(5)---|
-----------(5)-(5)-(5)-------| (x4)
-(5)-(x12)-------------------|
-----------------------------|

Chorus
Use the same chords as before.

Repeat Chorus
Strum the following chords (with wah):
--------------|
-10-12-10-15--|
-9--9--9--14--|
-7--9--7--12--|
--------------|
--------------|

Lastly, a fill from Take it All's 'whoa-oh-oh' in (see video):
----12------|
-14-----14--|
------------|
------------|
------------|
------------|
Tap to rate this tab
 
# A B C D E F G H I J K L M N O P Q R S T U V W X Y Z