Song name
# A B C D E F G H I J K L M N O P Q R S T U V W X Y Z

Hillsongs - Solution 1 United tab

by:hillsong united....
tabbed by:kaiser_earl32

enjoy it....its in GOD's will to play this....

Intro/Pre-Verse
---------------------------------|
-------5-5-5-4-5-------4-4-4-----|
-----------------------------6-4-|
-6-4-6-----------4-4-4-----------|
---------------------------------|
---------------------------------|
E

Verse 1:
B all the way.

Pre-Chorus
----------14-14-14-14-----------14-14-14-14-|
-12-11-12--------------12-11-12-------------|
--------------------------------------------|
--------------------------------------------|
--------------------------------------------|
--------------------------------------------|
G# E B F#

----------14-14-14-14--12-12-11-11-------------|
-12-11-12--------------------------14-14-11-11-|
-----------------------------------------------|
-----------------------------------------------|
-----------------------------------------------|
-----------------------------------------------|
G# E B F#


Pre-Verse, followed by Verse 2:
B F# E E
B F# E E

Pre-Chorus

Chorus:
E B F# F#
E G#m F# C#m

Pre-Verse:

Verse 3: no guitar (i think)

Pre-Chorus

Chorus:
E B F# F#
E G#m F# C#m
E B F# F#
E G#m F# Gdim7

To play Gdim7:
------|
--11--|
--9---|
--11--|
--10--|
------|

Instrumental (same chords as pre-chorus):
----------------------------------------------|
----------------------11-11-11----------------|
----------11----11-13----------13-13-13-11-13-|
-13-13-13----13-------------------------------|
----------------------------------------------|
----------------------------------------------|

----------------------------------------------|
----------------------14-14-14-12-12-12-11-11-|
----------11----11-13-------------------------|
-13-13-13----13-------------------------------|
----------------------------------------------|
----------------------------------------------|

----------------------------------------------|
----------------------11-11-11----------------|
----------11----11-13----------13-13-13-11-13-|
-13-13-13----13-------------------------------|
----------------------------------------------|
----------------------------------------------|

------------------------14-14-14-12-12-12-16s18-16-|
-14-14-14-12-12-12-11-11---------------------------|
---------------------------------------------------|
---------------------------------------------------|
---------------------------------------------------|
---------------------------------------------------|

Bridge:
-11--------12--------11-------9-------|
----12--------12--------12------11----|
-------13--------13--------11------11-|
--------------------------------------|
--------------------------------------|
--------------------------------------|
G#m E B F#

Play on every quarter beat when the music picks up.

Chorus
E B F# F#
E G#m F# C#m
E B F# F#
E G#m F# Gdim7

Ending (similar to instrumental):
----------------------------------------------|
----------------------11-11-11----------------|
----------11----11-13----------13-13-13-11-13-|
-13-13-13----13-------------------------------|
----------------------------------------------|
----------------------------------------------|

----------------------------------------------|
----------------------14-14-14-12-12-12-11-11-|
----------11----11-13-------------------------|
-13-13-13----13-------------------------------|
----------------------------------------------|
----------------------------------------------|

----------------------------------------------|
----------------------11-11-11----------------|
----------11----11-13----------13-13-13-11-13-|
-13-13-13----13-------------------------------|
----------------------------------------------|
----------------------------------------------|

----------------------14-14-14-12-12-12-11-11-|
-14-14-14-12-12-12-11-------------------------|
----------------------------------------------|
----------------------------------------------|
----------------------------------------------|
----------------------------------------------|

----------------------------------------------|
----------------------11-11-11----------------|
----------11----11-13----------13-13-13-11-13-|
-13-13-13----13-------------------------------|
----------------------------------------------|
----------------------------------------------|

----------------------------------------------|
----------------------14-14-14-12-12-12-11-11-|
----------11----11-13-------------------------|
-13-13-13----13-------------------------------|
----------------------------------------------|
----------------------------------------------|

----------------------------------------------|
----------------------11-11-11----------------|
----------11----11-13----------13-13-13-11-13-|
-13-13-13----13-------------------------------|
----------------------------------------------|
----------------------------------------------|

-14-14-14-12-12-12-11-11-19-19-19-18-18-18-18-18-|
-------------------------------------------------|
-------------------------------------------------|
-------------------------------------------------|
-------------------------------------------------|
-------------------------------------------------|

-16------|
---------|
---------|
---------|
---------|
---------|

comments & suggestions?? just email me in kaiser_earl32@yahoo.co.uk
this is my friendster account too....GOD bless you......
Tap to rate this tab
 
# A B C D E F G H I J K L M N O P Q R S T U V W X Y Z