Song name
# A B C D E F G H I J K L M N O P Q R S T U V W X Y Z

Hillsongs - My Future Decided tab

e----------------------------------|
B----------------------------------|
G----------------------------------|
D----------------------------------|
A-4-4-------------4-4-----5-5-4-4--|
E-----2-2-2-2-2-2-----2-2----------|

e-----------------------------------|
B-----------------------------------|
G-----------------------------------|
D-----------------------------------|
A-----------------------------------|
E-5-5-5-5-5-5-5-5-5-5-5-5-7-7-7-7---|

e----------------------------------|
B----------------------------------|
G----------------------------------|
D----------------------------------|
A4-4-------------4-4-----5-5-4-4---|
E----2-2-2-2-2-2-----2-2-----------|

e----------------------------------|
B----------------------------------|
G----------------------------------|
D----------------7-7-7-7-6-6-6-6-4-|
A----------------------------------|
E5-5-5-5-5-5-5-5-------------------|
Tap to rate this tab
# A B C D E F G H I J K L M N O P Q R S T U V W X Y Z