Song name
# A B C D E F G H I J K L M N O P Q R S T U V W X Y Z

Hilltop Hoods - City Of Light tab

This is the same chords for the whole song
you can play this riff on city of light or on city of light restrung it's the same thing


   
E||----------------------------------|
B||----------------------------------|
G||--0-----0-----0-----0-------0-0---|
D||--2-x-x-2-x-x-2-x-x-2-x-x-x-2-2-x-|
A||--2-x-x-2-x-x-2-x-x-2-x-x-x-2-2-x-|
E||--0-x-x-0-x-x-0-x-x-0-x-x-x-0-0-x-|



----------------------------------|
--1-----1-----1-----1-------1-1---|
--2-----2-----2-----2-------2-2---|
--2-x-x-2-x-x-2-x-x-2-x-x-x-2-2-x-|
--0-x-x-0-x-x-0-x-x-0-x-x-x-0-0-x-|
----x-x---x-x---x-x---x-x-x-----x-|

Tap to rate this tab
# A B C D E F G H I J K L M N O P Q R S T U V W X Y Z