Guitaretab - guitar tabs
Song name
# A B C D E F G H I J K L M N O P Q R S T U V W X Y Z

Hilltop Hoods - Nosebleed Section tab

------------------------------------------|
------------------------------------------|
-----------------7----7--------------9----|repeat twice
-------9----9----7----7----7----7----9----|
-------9----9----5----5----7----7----7----|
-------7----7--------------5----5---------|
then it goes
------------------------------------------|
------------------------------------------|
-------------7-7---------9-9--------------|
-------9-9---7-7---7-7---9-9--------------|
-------9-9---5-5---7-7---7-7--------------|
-------7-7---------5-5--------------------|
enjoy tabbed by beau cox of nowra
[ Tab from: http://www.guitaretab.com/h/hilltop-hoods/95932.html ]
Related for Nosebleed Section tab
Advertisement will be closed in 10 seconds