Guitaretab - guitar tabs
Song name
# A B C D E F G H I J K L M N O P Q R S T U V W X Y Z

Him - Soul On Fire tab

Title  : Soul On Fire     ||
Artist : HIM              ||
Album  : Love Metal       ||
Tuning : Standard         ||
__________________________||

Intro (distortion)

repeat as much as needed


=|e|----------------------------------||
=|H|----------------------------------||
=|G|----------------------------------||
=|D|--2-2-5-2-5-2-2-4-2-4-2-4-0-2-0-2-|| (thx to Edscodemaster@aol.com)
=|A|----------------------------------||
=|E|----------------------------------||


Verse (clean)
if you use the tabs instead the chords above then you have
to play the tabs between the breaks in the lyrics ,i hope
you understand it , its difficult to explain...
listen to the song and you'll get it .

Em/D                     Cadd9

----------0-             ---------0-------|
--------3---             -------3---0h1p0-|
----0-------             ---0-------------|
--2---2-----             -2---2-----------|
------------             -----------------|
------------             -----------------|
theres a flame           -stray
that leads our
souls  a-

Em/D                      Cadd9

----------0-             ---------0-------|
--------3---             -------3---0h1p0-|
----0-------             ---0-------------|
--2---2-----             -2---2-----------|
------------             -----------------|
------------             -----------------|


no one´s safe            pain
from its tender          and every
touch of


D                        Cadd9

---------2--             ---------0-------|
------------             -------3---0h1p0-|
------2-----             ---0-------------|
---0--------             -2---2-----------|
------------             -----------------|
------------             -----------------|
day                      slaves
its looking              to cele-
for new


D                        Cadd9          C5  D5

---------2--             ---------0---------------------|
------------             -------3-----------------------|
------2-----             ---0---------XX55XX77----------|
---0--------             -2---2-------XX55XX77------5*--|
------------             -------------XX33XX55----------|
------------             -----------------------0-3-----| *N.H.
brate                    graves
the beauty of
dark

Chorus (you can play powerchords if you want)

Em/D
we are like the living dead
sacrificing all we have
G                        D
for a frozen heart and a soul on fire
Em
we are like the living dead
G
craving for deliverance
Am                        C       D
with a frozen heart and a soul on fire

INTRO RIFF
[ Tab from: http://www.guitaretab.com/h/him/131073.html ]
Verse 2 (Same Chords/Tabs like above)
and again we´re falling for disgrace
and hate will shelter us from the rain
we are enslaved by the sacred heart of shame
and gently raped by the light of day


Chorus


Bridge
i know that there are a few tones wrong or missing , but i think
it sounds good , listen to the song and you'll get it.


|------------------------------------------------|
|------------------------------------------------|
|-14b16r14-12------------------------------------|
|-------------14---------------------------------|
|------------------------------------------------|
|------------------------------------------------|
                 addicted to our divine dis-

--------------------------------------------------|
--16b(17)-16b(17)-16b(17)-16b(17)-16b(17)-16b(17--|
--------------------------------------------------|
--------------------------------------------------|
--------------------------------------------------|
--------------------------------------------------|
paaair..

--12---------------------------------------------|
-----15-12-15/17---------------------------------|
-------------------------------------------------|
-------------------------------------------------|
-------------------------------------------------|
-------------------------------------------------|
                The venom of the cross we

-17b-17b-17b-17b------17-15-12--------------------|
-------------------------------15-12-15-----------|
---------------------------------------14-12------|
--------------------------------------------------|
--------------------------------------------------|
--------------------------------------------------|
 beaaaaar..               The guilt will follow us to


----------------------------------------------------------------|
--------------------------------16b(17)-16b(17)-18b(19)-18b(19)-|
12b(14)-12b(14)-12b(14)-12b(14)---------------------------------|
----------------------------------------------------------------|
----------------------------------------------------------------|
----------------------------------------------------------------|
Deaaaaaath..

-------|
-------|
-------|
-------|
---3-5-|
-0-----|


When you cant play the solo then try powerchords (or a second guitar could play the 
under the solo)

E5                        G5
addicted to our divine dispair
E5                        G5
The venom of the cross we bear
E5                          A5         C5 D5
The guilt will follow us to death


CHORUS
INTRO RIFF


End


=============================================

Enjoy !
For Any Questions or Correction E-Mail me (schattenkrieger2005@hotmail.de)
Please Rate this Tab
Related for Soul On Fire tab
×
Best way to learn
"Soul On Fire"