Song name
# A B C D E F G H I J K L M N O P Q R S T U V W X Y Z

Him - Your Sweet 666 tab

Tabbed by sixwheeledbeast
HIM - Your Sweet 666
Tuning: Standard E

This is pretty simple, feel free to make things
more economical (e.g. B5), but I play it this way.

PM any questions/corrections thanks, rate please.

KEY
PM..  - palm mute
[5]   - pinch harm


#Intro/Bridge
e|--------------------------|
b|--------------------------|
g|--------------------------|
D|--------------------------|
A|-5-4---9-----5--4---------|
E|-----5/7-----3--2---------|

e|--------------------------|
b|--------------------------|:
g|--------------------------|
D|--------------------------|
A|-9------5--4--------------|:
E|-7------3--2--------------|x2

e|--------------------------|
b|--------------------------|
g|--------------------------|
D|----------PM.........-----|
A|-9--19\\--5-5-5-5-5-4-----|
E|-7--19\\--3-3-3-3-3-2-----|


#Verse (0.16) - I have only tabbed the note changes,
                Listen to the song for timing.
e|-------------------------------------------------------|
b|-------------------------------------------------------|
g|PM.....................................................|
D|------------7------------------------------------------|
A|-5----------5----------4-----------------------------5-|
E|-3---------------------2-----------------------------3-|
          This is a keyboard riff but I add it in v 
e|-------------------------------------------------------|
b|-------------------------------------------------------|
g|PM.............................................--------|
D|------------7------------------------------------------|
A|-5----------5----------4------------------------5-4----|
E|-3---------------------2---------------------------5[3]|

e|-------------------------------------------------------|
b|-------------------------------------------------------|
g|PM.....................................................|
D|------------7------------------------------------------|
A|-5----------5----------4-----------------------------5-|
E|-3---------------------2-----------------------------3-|

e|-------------------------------------------------------|
b|-------------------------------------------------------|
g|PM.....................--------------------------------|
D|------------7------------------------------------------|
A|-5----------5----------4--------------4----------------|
E|-3---------------------2--------------2----------------|

#Chorus (0.46)
e|-------------------------------------------------------|
b|-------------------------------------------------------|
g|-------------------------------------------------------|
D|---------[5]4----------[5]4------4--[5]4------4--[5]4--|
A|-----9-------------9---------5-5--5--------------------|
E|-7-7--7--------7-7--7---------------------5-5--5-------|

                         Chorus x2 w/out end on the second v
e|--------------------------------------------------|-------|
b|--------------------------------------------------|-------|
g|--------------------------------------------------|-------|
D|------[5-5-4]--------[5-5-4]-------[5-5-4]-----4--|-------|
A|----4--------------4-------------4----------------|5-4---9|
E|3-3--3---------3-3--3--------3-3--3--------5-5--5-|----5/7|

#Intro/Bridge (1.15)
#Verse (1.30)
#Chorus (2.00)

#Bridge Variation (2.29)
e|--------------------------|
b|--------------------------|
g|--------------------------|
D|--------------------------|
A|-5-4---9-----5--4---------|
E|-----5/7-----3--2---------|

e|--------------------------|
b|--------------------------|:
g|--------------------------|
D|--------------------------|
A|-9------5--4--------------|:
E|-7------3--2--------------|x2

e|--------------------------|
b|--------------------------|
g|--------------------------|
D|---------------------PM...|
A|-9------5--4------------9x|
E|-7------3--2------------7x|

#Rest for Guitar (2.45)

#Build-up (2.55)
e|--------------------------|
b|--------------------------|
g|--------------------------|
D|--------------------------|
A|-4---------4--------------|
E|-2---------2--------------|

#Chorus with key change (2.59)
e|-------------------------------------------------------|
b|-------------------------------------------------------|
g|-------------------------------------------------------|
D|---------[7]6----------[7]6------6--[7]6------6--[7]6--|
A|----11------------11---------7-7--7--------------------|
E|-9-9--9--------9-9--9---------------------7-7--7-------|

e|-------------------------------|
b|-------------------------------|:
g|-------------------------------|
D|--------7-7-6------6-----------|
A|-----6----------------7-6---11-|:
E|-5-5--5--------7-7--6-----7/9--|x3

e|-------------------------------------------------------|
b|-------------------------------------------------------|
g|-------------------------------------------------------|
D|---------[7]6----------[7]6------6--[7]6------6--[7]6--|
A|----11------------11---------7-7--7--------------------|
E|-9-9--9--------9-9--9---------------------7-7--7-------|

#Ending - Repeated riff (3.40)
e|-------------------------------|    |----------------|
b|-------------------------------|:   |----------------|
g|-------------------------------|    |----------------|
D|-------[7-7-6]-----6-[7-7-6]---|    |----------------|
A|-----6-------------------------|:   |-7-6----\\\\\\\-|
E|[5]5-----------7-7-------------|x4  |-----7/9\\\\\\\-|
Tap to rate this tab
# A B C D E F G H I J K L M N O P Q R S T U V W X Y Z